PrimaNota.ru - самый крупный в мире бесплатный архив песенных текстов, аккордов, табулатур и нот


Uncrowned - Remember Your Ghost - таба, видео

Регистрация Запомнить меня
Войти через:  Facebook Google Twitter Vk Yandex Mail.ru

Uncrowned - Remember Your Ghost - таба, видео

Печатать
Просмотров: 89
----------------------------------------------------------------------------
                            Remember Your Ghost
                                 Uncrowned
----------------------------------------------------------------------------

 Hello I'm back again with another guitar tab that I haven't found on this website that
like. This one song that has hard core lyrics (if you know what I mean) in a way of
without even screaming along with the backup singer there is nothing stopping this song.
one thing I like about the guitar riffs in this song, is that they are so fun, and yet
that hard. One of those songs you play like “Trust in You” by The Offsprings; fun but
hard. Oh yeah to spice it up, I'm doing this during my computer applications class AT
I don't have the timing or lyrics or guitar or notes! Only my brain! But I have played 
many times so it is good. Enjoy.
Username: dkm817 (same on Xbox live)
Email: guitardrums@rockfanmail.com

Guitar 1:  (C G C F A D)
Usually I have the guitar 2 part but I don't hear it that well, so I will only do the
1 part (which most people usually do anyway).

Intro

Guitar 1   Light distortion, if not no distortion at all
D-----------------------------------------------------------------------|
A-----------------------------------------------------------------------|
F-------3-3-3-------2-2-2-2-2-2-2-2-2-------3-3-3-------5-5-5-5-5-5-5-5-|
C-5-5-5-3-3-3-3-3-3-2-2-2-2-2-2-2-2-2-5-5-5-3-3-3-3-3-3-5-5-5-5-5-5-5-5-|
G-5-5-5-1-1-1-3-3-3-0-0-0-0-0-0-0-0-0-5-5-5-1-1-1-3-3-3-3-3-3-3-3-3-3-3-|
C-5-5-5-------3-3-3-------------------5-5-5-------3-3-3-----------------|

Guitar 1
D----------------------------------------|
A----------------------------------------|
F-------3-3-3-------2-2-2-2-2-2-2-2-3~~~-|
C-5-5-5-3-3-3-3-3-3-2-2-2-2-2-2-2-2-3~~~-|
G-5-5-5-1-1-1-3-3-3-0-0-0-0-0-0-0-0-1~~~-|
C-5-5-5-------3-3-3----------------------|

Intro (Chorus)

Guitar 1 heavy distortion
D-----------------------------------------|
A-----------------------------------------|
F-------3-3-3-------2-2-2-3-3-2---3-3-5-7-|
C-5-5-5-3-3-3-3-3-3-2-2-2-3-3-2-0-3-3-5-7-|
G-5-5-5-1-1-1-3-3-3-0-0-0-1-1-0-0-1-1-3-5-|
C-5-5-5-------3-3-3-------------0---------|

Guitar 1
D-------------------------------------|
A-------------------------------------|
F-------3-3-3-------2-2-2-3-5---------|
C-5-5-5-3-3-3-3-3-3-2-2-2-3-5-1~~~~~~-|
G-5-5-5-1-1-1-3-3-3-0-0-0-1-3-1~~~~~~-|
C-5-5-5-------3-3-3-----------1~~~~~~-|


Verse

Guitar 1
D------------------------------------------------------------------|
A------------------------------------------------------------------|
F---------------------------------7-7-7-7-7-7-7-7------------------|
C-5-5-5-5-5-5-5-5-3-3-3-3-3-3-3-3-7-7-7-7-7-7-7-7-7-7-7-7-7-7-7-7--| x2
G-5-5-5-5-5-5-5-5-3-3-3-3-3-3-3-3-5-5-5-5-5-5-5-5-7-7-7-7-7-7-7-7--|
C-5-5-5-5-5-5-5-5-3-3-3-3-3-3-3-3-----------------7-7-7-7-7-7-7-7--|
Pm. . . . . . . . . . . . . . . . . . . . . . . . . . . . . . . .

Pre Chorus

Guitar 1
D------------------------------------------------------------------|
A------------------------------------------------------------------|
F------------------------------------------------------------------|
C-5-7-8-0-5-7-0-0-5-7-8-0-5-7-0-0-5-7-8-0-5-7-0-0-5-7-8-0-5-7-0-0--| x2
G-5-7-8-0-5-7-0-0-5-7-8-0-5-7-0-0-5-7-8-0-5-7-0-0-5-7-8-0-5-7-0-0--|
C-5-7-8-0-5-7-0-0-5-7-8-0-5-7-0-0-5-7-8-0-5-7-0-0-5-7-8-0-5-7-0-0--|

Mini Bridge

Guitar 1
D-------------------------------------------------|
A-------------------------------------------------|
F-------------------------------------------------|
C-------------------------------------------------|
G-10-10-10-13-13-13-10-10-10-13-13-13-10-10-13-13-|
C-------------------------------------------------|
pm.  .  .  .  .  .  .  .  .  .  .  .  .  .  .  .

Chorus

Guitar 1
D---------------------------------------------------------------------|
A---------------------------------------------------------------------|
F-------3-3-3-------2-2-2-2-2-2-2-2-------3-3-3-------5-5-5-5-5-5-5-5-|
C-5-5-5-3-3-3-3-3-3-2-2-2-2-2-2-2-2-5-5-5-3-3-3-3-3-3-5-5-5-5-5-5-5-5-|
G-5-5-5-1-1-1-3-3-3-0-0-0-0-0-0-0-0-5-5-5-1-1-1-3-3-3-3-3-3-3-3-3-3-3-|
C-5-5-5-------3-3-3-----------------5-5-5-------3-3-3-----------------|

Guitar 1
D---------------------------------------------------------------------|
A---------------------------------------------------------------------|
F-------3-3-3-------2-2-2-2-2-2-2-2-----------------------------------|
C-5-5-5-3-3-3-3-3-3-2-2-2-2-2-2-2-2-1-1-1-1-1-1-1-1-1-1-1-1-1-1-1-1-1-|
G-5-5-5-1-1-1-3-3-3-0-0-0-0-0-0-0-0-1-1-1-1-1-1-1-1-1-1-1-1-1-1-1-1-1-|
C-5-5-5-------3-3-3-----------------1-1-1-1-1-1-1-1-1-1-1-1-1-1-1-1-1-|

Break off

Guitar 1 I probably screwed up at this part, but I don't have my notes.
D---------------------------------|
A---------------------------------|
F---------------------------------|
C-5-7-8-0-5-7-0-0-5-7-8-0-5-7-0-0-|
G-5-7-8-0-5-7-0-0-5-7-8-0-5-7-0-0-|
C-5-7-8-0-5-7-0-0-5-7-8-0-5-7-0-0-|
pm. . . . . . . . . . . . . . . .

Verse

Guitar 1
D-----------------------------------------------------------------|
A-----------------------------------------------------------------|
F---------------------------------7-7-7-7-7-7-7-7-----------------|
C-5-5-5-5-5-5-5-5-3-3-3-3-3-3-3-3-7-7-7-7-7-7-7-7-7-7-7-7-7-7-7-7-|
G-5-5-5-5-5-5-5-5-3-3-3-3-3-3-3-3-5-5-5-5-5-5-5-5-7-7-7-7-7-7-7-7-|
C-5-5-5-5-5-5-5-5-3-3-3-3-3-3-3-3-----------------7-7-7-7-7-7-7-7-|
pm. . . . . . . . . . . . . . . . . . . . . . . . . . . . . . . .

Pre Chorus

Guitar 1
D-----------------------------------------------------------------|
A-----------------------------------------------------------------|
F-----------------------------------------------------------------|
C-5-7-8-0-5-7-0-0-5-7-8-0-5-7-0-0-5-7-8-0-5-7-0-0-5-7-8-0-5-7-0-0-|
G-5-7-8-0-5-7-0-0-5-7-8-0-5-7-0-0-5-7-8-0-5-7-0-0-5-7-8-0-5-7-0-0-|
C-5-7-8-0-5-7-0-0-5-7-8-0-5-7-0-0-5-7-8-0-5-7-0-0-5-7-8-0-5-7-0-0-|

Mini Bridge

Guitar 1
D-------------------------------------------------|
A-------------------------------------------------|
F-------------------------------------------------|
C-------------------------------------------------|
G-10-10-10-13-13-13-10-10-10-13-13-13-10-10-13-13-|
C-------------------------------------------------|
pm.  .  .  .  .  .  .  .  .  .  .  .  .  .  .  .

Chorus

Guitar 1
D---------------------------------------------------------------------|
A---------------------------------------------------------------------|
F-------3-3-3-------2-2-2-2-2-2-2-2-------3-3-3-------5-5-5-5-5-5-5-5-|
C-5-5-5-3-3-3-3-3-3-2-2-2-2-2-2-2-2-5-5-5-3-3-3-3-3-3-5-5-5-5-5-5-5-5-|
G-5-5-5-1-1-1-3-3-3-0-0-0-0-0-0-0-0-5-5-5-1-1-1-3-3-3-3-3-3-3-3-3-3-3-|
C-5-5-5-------3-3-3-----------------5-5-5-------3-3-3-----------------|

Guitar 1
D---------------------------------------------------------------------|
A---------------------------------------------------------------------|
F-------3-3-3-------2-2-2-2-2-2-2-2-----------------------------------|
C-5-5-5-3-3-3-3-3-3-2-2-2-2-2-2-2-2-1-1-1-1-1-1-1-1-1-1-1-1-1-1-1-1-1-|
G-5-5-5-1-1-1-3-3-3-0-0-0-0-0-0-0-0-1-1-1-1-1-1-1-1-1-1-1-1-1-1-1-1-1-|
C-5-5-5-------3-3-3-----------------1-1-1-1-1-1-1-1-1-1-1-1-1-1-1-1-1-|

Breakdown

Guitar 1
D-----------------------------------------------------------|
A-----------------------------------------------------------|
F-----------------------------------------------------------|
C------1-1-1-5-5-5-1-1-1-5-5-5------1-1-1-5-5-5-1-1-1-5-5-5-|
G------1-1-1-5-5-5-1-1-1-5-5-5------1-1-1-5-5-5-1-1-1-5-5-5-|
C------1-1-1-5-5-5-1-1-1-5-5-5------1-1-1-5-5-5-1-1-1-5-5-5-|

Guitar 1
D-----------------------------------------------------------|
A-----------------------------------------------------------|
F-----------------------------------------------------------|
C------1-1-1-5-5-5-1-1-1-5-5-5------1-1-1-5-5-5-1-1-1-5-5-5-|
G------1-1-1-5-5-5-1-1-1-5-5-5------1-1-1-5-5-5-1-1-1-5-5-5-|
C------1-1-1-5-5-5-1-1-1-5-5-5------1-1-1-5-5-5-1-1-1-5-5-5-|

Interlude
D-------------------------------------------------------------------|
A-------------------------------------------------------------------|
F-------------------------------------------------------------------|
C-1-1-1-5-5-5-1-1-1-5-5-5-1-1-5-5|-1-1-1-5-5-5-1-1-1-5-5-5-1-1-5-5--| x4
G-1-1-1-5-5-5-1-1-1-5-5-5-1-1-5-5|-1-1-1-5-5-5-1-1-1-5-5-5-1-1-5-5--|
C-1-1-1-5-5-5-1-1-1-5-5-5-1-1-5-5|-1-1-1-5-5-5-1-1-1-5-5-5-1-1-5-5--|

Mini Solo

Guitar 1
D------------------------------------------------------------|
A-15-14-12|-15-14-12|-15-14-12|-15-14-12|-15-14-12|-15-14-12-|
F------------------------------------------------------------|
C------------------------------------------------------------|
G------------------------------------------------------------|
C------------------------------------------------------------|

Guitar 1
D----------------------------------------------------------------------------|
A-16-15-13|-16-15-13|-16-15-13|-16-15-13|-11-10-8|-11-10-8|-11-10-8|-11-10-8-|
F----------------------------------------------------------------------------|
C----------------------------------------------------------------------------|
G----------------------------------------------------------------------------|
C----------------------------------------------------------------------------|

Mini Bridge

Guitar 1
D-------------------------------------------------|
A-------------------------------------------------|
F-------------------------------------------------|
C-------------------------------------------------|
G-10-10-10-13-13-13-10-10-10-13-13-13-10-10-13-13-|
C-------------------------------------------------|
pm.  .  .  .  .  .  .  .  .  .  .  .  .  .  .  .

Chorus

Guitar 1
D---------------------------------------------------------------------|
A---------------------------------------------------------------------|
F-------3-3-3-------2-2-2-2-2-2-2-2-------3-3-3-------5-5-5-5-5-5-5-5-|
C-5-5-5-3-3-3-3-3-3-2-2-2-2-2-2-2-2-5-5-5-3-3-3-3-3-3-5-5-5-5-5-5-5-5-|
G-5-5-5-1-1-1-3-3-3-0-0-0-0-0-0-0-0-5-5-5-1-1-1-3-3-3-3-3-3-3-3-3-3-3-|
C-5-5-5-------3-3-3-----------------5-5-5-------3-3-3-----------------|

Guitar 1
D---------------------------------------------------------------------|
A---------------------------------------------------------------------|
F-------3-3-3-------2-2-2-2-2-2-2-2-----------------------------------|
C-5-5-5-3-3-3-3-3-3-2-2-2-2-2-2-2-2-1-1-1-1-1-1-1-1-1-1-1-1-1-1-1-1-1-|
G-5-5-5-1-1-1-3-3-3-0-0-0-0-0-0-0-0-1-1-1-1-1-1-1-1-1-1-1-1-1-1-1-1-1-|
C-5-5-5-------3-3-3-----------------1-1-1-1-1-1-1-1-1-1-1-1-1-1-1-1-1-|

Outro

Guitar 1
D--
A--
F--
C-1
G-1
C-1

Tab Legend
h - hammer-on
p - pull-off
/ - slide up
\ - slide down
~ - let ring
pm- palm mute
| - fast strumming
* - harmonic

There you go, this has been a Brain Production, not really, and I hope you find it very
because I will always be available to make any tab as long as it is hard rock, like
and nobody has made a tab for it already. Peace.
Добавлено: 25.03.2012
Другие материалы по этой песне:
  • Аккорды и текст

Страница создана 25.03.2012
http://primanota.ru/uncrowned/remember-your-ghost-chords.htm
Привет, Гость.
Предлагаем пройти революционный курс по гитаре.
Подарок от PrimaNota.Ru, забирай!