PrimaNota.ru - самый крупный в мире бесплатный архив песенных текстов, аккордов, табулатур и нот


Uncle Tupelo - Weve Been Had - аккорды и текст, таба, видео

Регистрация Запомнить меня
Войти через:  Facebook Google Twitter Vk Yandex Mail.ru

Uncle Tupelo - Weve Been Had - аккорды и текст, таба, видео

Печатать
Просмотров: 125
Авторы: Jay Farrar, Jeff Tweedy

Weve Been Had
Uncle Tupelo


From: si2_ri92175@debet.nhh.no (Runar Igesund)

This looks to be the final postings, with complete lyrics
thanks to John B. Carroll - jcarr@crl.com.
si2_ri92175@debet.nhh.no

This riff goes through the song and is called just riff.
  G                 C       G
e|--------------------------------|
B|--------------------------------|
G|3---4-3-4-3-4-3-4-2-0-----------|
D|----------------------2-0-2-----|
A|--------------------------------|
E|--------------------------------|


@WE'VE BEEN HAD;ANODYNE by UNCLE TUPELO

        Riff (4 times)

        C                G
        There's a ...
        C             G
        On a ...
        C                    Am
        Used to sound like a ...
        D
            Now I think , ...

        Riff (2 times)

        next verse
        There's a young ....

        Riff (2 times)

        Bridge(lyrics)
        G                    G/F#    
        Watchin your labels, ...
        Em7                     Em7     
        There's no car waiting, ....
        C                       Em            
        Every star that shines, ...
        Am                    C
        Just waiting for ....

        Riff and last verse

        There's a eardrum ....
        

        Riff and Bridge(Don't know the lyrics)

        Republicans and democrats, they .....

        Riff and guitar solo

        End on Bridge

        SOME CHORDS
           G   G/F#  Em7
        e|-3----3-----3-------------------|
        B|-3----3-----3-------------------|
        G|-0----0-----0-------------------|
        D|-0----0-----2-------------------|
        A|-2----2-----2-------------------|
        E|-3----2-----0-------------------|

-- 
Runar 
-------------------------------------------------------------------------------
              My my, hey hey, Rock'n roll is here to stay.
               Runar Igesund,  SI2_RI92175@DEBET.NHH.NO
         Norwegian School of Economics and Business Administration
-------------------------------------------------------------------------------


Добавлено: 04.12.2013
Другие материалы по этой песне:
  • Аккорды и текст

Страница создана 20.05.2012
http://primanota.ru/uncle-tupelo/weve-been-had-chords.htm
Привет, Гость.
Предлагаем пройти революционный курс по гитаре.
Подарок от PrimaNota.Ru, забирай!