PrimaNota.ru - самый крупный в мире бесплатный архив песенных текстов, аккордов, табулатур и нот


Uncle Tupelo - Acuff Rose - аккорды и текст, видео

Регистрация Запомнить меня
Войти через:  Facebook Google Twitter Vk Yandex Mail.ru

Uncle Tupelo - Acuff Rose - аккорды и текст, видео

Печатать
Просмотров: 30
Acuff Rose
Uncle Tupelo
-------------------------------------------------------------------------------
                    ACUFF ROSE - Uncle Tupelo
-------------------------------------------------------------------------------
Tabbed by: jvwald

This tab is based on this YouTube video:
https://www.youtube.com/watch?v=5z6DgUgVpVs

If you find this tab helpful, check out the other Wilco/Tweedy tabs I've posted.

Tuning: Open G (DGDGBD)
Capo: II

G5 x00030
Cadd2 x02010
D5 x20230
Dno5/G x0403

riff 1
d|----------------------------------------------------------------------|
B|--3-3-3-3-3-3-3-3-3--3-3-3-3-3-3-3-3-3--3-3-3-3-3-3-3-3-3--3-3-3-3-3--|
G|--2h4-4-4-4-4-0-0-0--2h4-4-4-4-4-0-0-0--2h4-4-4-4-4-0-0-0--2h4-2-0-0--|
D|--0-0-0-0-0-0-0-2-0--0-0-0-0-0-0-0-2-0--0-0-0-0-0-0-0-0-0--0-0-0-2-0--|
G|--0-0-0-0-0-0-0-0-0--0-0-0-0-0-0-0-0-0--0-0-0-0-0-0-0-0-2--0-0-0-0-0--|
D|----------------------------------------------------------------------|

intro
riff 1 x2

G5                     Cadd2             G5
Early in the morning, sometimes late at night
     Cadd2                       D5              G5 
Sometimes I get the feeling that everything's alright
                       Cadd2            G5
Early in the evening, sometimes in the day
     Cadd2                  D5             G5
Sometimes I get the feeling everything's okay
Cadd2   Dno5/G x6
Because everything cuts against the tide when you're by my side

riff 1 x2

G5                  Cadd2       G5
Name me a song that everybody knows
      Cadd2                D5     G5 
I'll bet you it belongs to Acuff-Rose
                              Cadd2            G5
Children in the playground, the folks at the show
Cadd2                  D5          G5
Anybody anywhere who's ever been alone
Cadd2   Dno5/G x6
Because everything cuts against the tide when I hear that sound

riff 1 x2


************************************

| /   slide up
| \   slide down
| h   hammer-on
| p   pull-off
| ~   vibrato
| +   harmonic
| x   Mute note
| b   Bend
| pb  Pre-bend
| br  Bend release
| pbr Pre-bend release
| brb Bend release bend

************************************
Добавлено: 20.04.2016
Вам также может быть интересно:
Другие материалы по этой песне:
  • Аккорды и текст

Страница создана 20.04.2016
http://primanota.ru/uncle-tupelo/acuff-rose-2-chords.htm
Привет, Гость.
Предлагаем пройти революционный курс по гитаре.
Подарок от PrimaNota.Ru, забирай!