PrimaNota.ru - самый крупный в мире бесплатный архив песенных текстов, аккордов, табулатур и нот


Uncle Jed - Give Me Love - аккорды и текст, видео

Регистрация Запомнить меня
Войти через:  Facebook Google Twitter Vk Yandex Mail.ru

Uncle Jed - Give Me Love - аккорды и текст, видео

Печатать
Просмотров: 77
Give Me Love
Uncle Jed
Uncle Jed's version of this song was incredible. 
I've done this as chords, though I've done the tabs that are played as well
If you wanna just stick to chords, that's fine! 
In the verses, when full chords are played, it sounds better if you only play/emphasise the bass notes.

Capo on 5

Intro:
(Am)                            (F)
e|--------------0--------------|-1----------------------------------|
B|----------------1------------|-1----------------------------------|
G|--------2---------2----------|-2----------------------------------|
D|------2----------------------|-3----------------------------------|
A|--0---------0----------------|-3----------------------------------|
E|-----------------------------|-1----------------------------------|

(C)                             (G)
e|--------------0--------------|-3----------------------------------|
B|----------------1------------|-3----------------------------------|
G|--------0---------0----------|-0----------------------------------|
D|------2----------------------|-0----------------------------------|
A|--3---------3----------------|-2----------------------------------|
E|-----------------------------|-3----------------------------------|

Verse 1 (repeat of the intro, though I've written the chords for efficiency):
Am           F          C      G
 Give me love like her,
Am            F                    C          G
'Cos lately I've been waking up alone,
Am                F                C           G
 Pain splattered teardrops on my shirt,
Am              F          C         G
  Told you I'd let them go,

Bridge: 
  (Dm)                          (F)
e|-1-----1-----1-----1---------|-1-----1-----1-----1----------|
B|-----3-----3-----3-----3-----|-----1-----1-----1-----1------|
G|---2-----2-----2-----2-------|---2-----2-----2-----2--------|
D|-0---------------------------|-3----------------------------|
A|-----------------------------|------------------------------|
E|-----------------------------|------------------------------|

   (C)                          (G)
e|-0-----0-----0-----0---------|-3-----3-----3----------------------|
B|-----1-----1-----1-----1-----|-----3-----3------------------------|
G|---0-----0-----0-----0-------|---0-----0--------------------------|
D|-2---------------------------|------------------------------------|
A|-----------------------------|-2----------------------------------|
E|-----------------------------|------------------------------------|

              Dm
And that I'll fight my corner
        F
Maybe tonight I'll call you
         C                    G
After my blood, turns into alcohol

Chorus (no tabs - just chords):

    F                 Am
No, I just wanna hold ya
Am             G       F
Give a little time to me, we'll burn this out
Am          G        F
We'll play hide and seek, just to turn it around
Am       G           F
All I want is the taste that your lips allow
Am     F    C
My my my my give me love
Am     F    G
My my my my give me love

Verse 2 (use same tab as verse 1)
Am           F          C      G
 Give me love like never before,
Am            F                    C          G
'Cos lately I've been cravin' you more,
Am                F                C           G
 And it's been a while, but I still feel the same,
Am              F          C         G
  And maybe I should let you go,

Bridge (same tab as before):

              Dm
You know I'll fight my corner
        F
Maybe tonight I'll call you
         C                    G
After my blood, turns into alcohol

Chorus:
           F                 Am
Well now, I just wanna hold ya
C             G       F
Give a little time to me, we'll burn this out
C          G        F
We'll play hide and seek, just to turn it around
C       G           F
All I want is the taste that your lips allow
Am     F    C
My my my my give me love
Am     F    G
My my my my give me love*

**
 Am
(My my my, my my my, my my my, give me love now)
             Am
Give me love* (My my my, my my my, my my my, give me love now)
             Am
Give me love* (My my my, my my my, my my my, give me love now)
             Am
Give me love* (My my my, my my my, my my my, give me love now)

             Am
Give me love, love, love love love (My my my, my my my, my my my, give me love now)
 Am
Love, la la la la la la la (My my my, my my my, my my my, give me love now)
Am
My my my, my my my (My my my, my my my, my my my, give me love now)
Am
My my my, my my my (My my my, my my my, my my my, give me love now)
Am
My my my, my my my (My my my, my my my, my my my, give me love now)
            Am
Give me love* (My my my, my my my, my my my, give me love now)

F  C (Barre C)

* Hold on "love"
** This part goes a bit weird. She holds on the "love" but the others go 
(my my my, my my my, my my my, give me love now). 
The only chord is played is Am, though if you want it to sound more like the track, try doing this:
e|------------------------------------|
B|-1----1-x-1----1-x-1----1-x-1--1-1-1|
G|-0-h2-2-x-0-h2-2-x-0-h2-2-x-0--0-0-0|
D|-0-h2-2-x-0-h2-2-x-0-h2-2-x-0--0-0-0|
A|------------------------------------|
E|------------------------------------|
To give it the better sound.

Seems mostly accurate to me! :)
Добавлено: 29.11.2015
Другие материалы по этой песне:
  • Аккорды и текст

Страница создана 29.11.2015
http://primanota.ru/uncle-jed/give-me-love-chords.htm
Привет, Гость.
Предлагаем пройти революционный курс по гитаре.
Подарок от PrimaNota.Ru, забирай!