PrimaNota.ru - самый крупный в мире бесплатный архив песенных текстов, аккордов, табулатур и нот


Uncle Acid And The Deadbeats - Mt Abraxas - таба, видео

Регистрация Запомнить меня
Войти через:  Facebook Google Twitter Vk Yandex Mail.ru

Uncle Acid And The Deadbeats - Mt Abraxas - таба, видео

Печатать
Просмотров: 101
-------------------------------------------------------------------------------
                Uncle Acid and the Deadbeats - Mt. Abraxas
-------------------------------------------------------------------------------

Tuning: C# Standard (C#, F#, B, E, G#, c#)


Intro riff (played 4 times):
e|---------------------------------------------------------------------------|
B|------------------------------------------------------------8--------------|
G|---------------------------------------------------------------------------|
D|--10-10-10--10--9-10-10/10-10~~----------10-10-10--9 9-7------7---7--------|
A|0-12-12-12--12-10-12-12/14-12~~-10h12--0-12-12-12-10---8--------8----------|
E|---------------------------------------------------------------------------|

Intro harmony (joins after the 2nd time):
e|---------------------------------------------------------------------------|
B|---------------------------------------------------------------------------|
G|---9--9--9---9-7--9-10--9~~-----------9--9--9--7--5~-----------------------|
D|--10-10-10--10-9-10-12-10~~----------10-10-10--9--7~-----------------------|
A|0---------------------------10h12--0---------------------------------------|
E|---------------------------------------------------------------------------|

Verse riff(x8):
e|---------------------------------------------------------------------------|
B|---------------------------------------------------------------------------|
G|---------------------------------------------------------------------0-----|
D|---14-14-14-12-10-9h10p9-7-5h7-7~~----14-14-14-12h14p12-10-9----10----10---|
A|0--0--0--0---0--0-0------0-0---0~~--0-0-0-0----0--------0--0--8-----8---8\\|
E|---------------------------------------------------------------------------|

Chorus riff(x2):
e|---------------------------------------------------------------------------|
B|---------------------------------------------------------------------------|
G|---------------------------------------------------------------------------|
D|--7-7-7-5-----5--------------7-7-7-5---------------------------------------|
A|--9-9-9-7-----7--------------9-9-9-7------10~~--10--10---------------------|
E|0---------0-0---0-3-5-7~~--0---------0----8-~~--8---8----------------------|
            . .   .                  
Verse riff x4 then
Chorus riff x2

At the end of the second chorus play this:
e|---------------------------------------------------------------------------|
B|---------------------------------------------------------------------------|
G|---------------------------------------------------------------------------|
D|---------------------------------------------------------------------------|
A|10~~--10-10---9~~--9~---5~~--5~--55/7-77-7~-7-7-7---7-7-5--5---------------|
E|8-~~--8--8----7~~--7~---3~~--3~--33/5-55-5~-5-5-5---5-5\3--3---------------|

Riff 1 (x4):
e|---------------------------------------------------------------------------|
B|---------------------------------------------------------------------------|
G|---------------------------------------------------------------------------|
D|7-9-----9~---9-10-12-10-9-7~--7-9-----9~--9-10-12-14~----------------------|
A|5-7-----7~---7-9--10-9--7-5~--5-7-----7~--7-9--10-12~----------------------|
E|----0-0----0----------------------0-0---0----------------------------------|
      . .    .                      . .   .
Riff 2 (x2)
e|7-7-7-9--9--9--10-10-10-9--9--9--7-----------------------------------------|
B|8-8-8-10-10-10-12-12-12-10-10-10-8-----------------------------------------|
G|7-7-7-9--9--9--10-10-10-9--9--9--7-----------------------------------------|
D|---------------------------------------------------------------------------|
A|---------------------------------------------------------------------------|
E|---------------------------------------------------------------------------|
Riff 3 (x2)
e|---------------------------------------------------------------------------|
B|---------------------------------------------------------------------------|
G|---------------------------------------------------------------------------|
D|12-11-9-7-7-7h9-7----------------------------------------------------------|
A|0--0--0-0-0-0---0-----------------------------------------------------------|
E|---------------------------------------------------------------------------|

Riff 2 x2 
Riff 3 x2 then

Riff 4(x3):

e|---------------------------------------------------------------------------|
B|---------------------------------------------------------------------------|
G|-----------------9---------------------------------------------------------|
D|7-5-7---7~~--/11---11h9\7-9h7-5--------------------------------------------|
A|------0--------------------------------------------------------------------|
E|---------------------------------------------------------------------------|

Riff 5:

e|---------------------------------------------------------------------------|
B|---------------------------------------------------------------------------|
G|---------------------------------------------------------------------------|
D|-9-7-5~--------------------------------------------------------------------|
A|10-9-7~--------------------------------------------------------------------|
E|---------------------------------------------------------------------------|

Riff 4 x3
Riff 5 x2 then

e|---------------------------------------------------------------------------|
B|---------------------------------------------------------------------------|
G|---------------------------------------------------------------------------|
D|-9-7-5-4-2-4---------------------------------------------------------------|
A|10-9-7-5-3-5---------------------------------------------------------------|
E|---------------------------------------------------------------------------|

Drony riff:
e|---------------------------------------------------------------------------|
B|---------------------------------------------------------------------------|
G|---------------------------------------------------------------------------|
D|2~---2~---2~----------------2~---2~-----------------2~---------------------|
A|0~---0~---0~---/6~~~-5b-----0~---0~---10--12~~-10~--0~---/6~~~-5b-----------|
E|---------------------------------------------------------------------------|

Drony riff harmony:
e|---------------------------------------------------------------------------|
B|---------------------------------------------------------------------------|
G|---------------------------------------------------------------------------|
D|2~---2~---2~---/5~~~-4b----------2~---2~----9--10~~--9---2~---/5~~~-4b-----|
A|0~---0~---0~---------------------0~---0~-----------------0~----------------|
E|---------------------------------------------------------------------------|
 
Outro riff 1 (x4):
e|-----------------------------------------------------------------------------------|
B|-----------------------------------------------------------------------------------|
G|-----------------------------------------------------------------------------------|
D|-----------------------------------------------------------------------------------|
A|0--/12--12-10-12~--0--/12--12--10--10h12-12---0--/12--12-10-12~--0-6~~---5~~--3~~~-|
E|-----------------------------------------------------------------------------------|

Outro riff 1 Harmony (x4):
e|--------------------------------------------------------------------------------------|
B|--------------------------------------------------------------------------------------|
G|--------------------------------------------------------------------------------------|
D|----/10--10-9--10~------/10--10---9--9h10--10-----/-10--10-9--10~---5~~-----4~~----2~~|
A|0--------------------0-------------------------0-------------------0------------------|
E|--------------------------------------------------------------------------------------|


Outro riff 2 (x8):
e|-----------------------------------------------------------------------------------|
B|-----------------------------------------------------------------------------------|
G|-----------------------------------------------------------------------------------|
D|-----------------------------------------------------------------------------------|
A|0--12b-12-10-12~~--0-12b-12-10-10h12-12--0-12b-12-10-12~~-0-6~~-5~~-3~~------------|
E|-----------------------------------------------------------------------------------|

Outro riff 2 Harmony (x4, joins after 4th time):
e|-----------------------------------------------------------------------------------|
B|-----------------------------------------------------------------------------------|
G|-----------------------------------------------------------------------------------|
D|---10b-10-9--10------10b-10-9--9h10--10----10b-10-9--10-----5~~-4~~-2~~------------|
A|0-----------------0---------------------0-----------------0------------------------|
E|-----------------------------------------------------------------------------------|

Finish on:

e|-----------------------------------------------------------------------------------|
B|-----------------------------------------------------------------------------------|
G|-----------------------------------------------------------------------------------|
D|2----------------------------------------------------------------------------------|
A|0----------------------------------------------------------------------------------|
E|-----------------------------------------------------------------------------------|






************************************
| .   palm muting
| /   slide up
| \   slide down
| h   hammer-on
| p   pull-off
| ~   vibrato
| +   harmonic
| x   Mute note
| b   Bend
| pb  Pre-bend
| br  Bend release
| pbr Pre-bend release
| brb Bend release bend

************************************
Добавлено: 30.12.2015
Вам также может быть интересно:
Другие материалы по этой песне:
  • Аккорды и текст

Страница создана 30.12.2015
http://primanota.ru/uncle-acid-and-the-deadbeats/mt-abraxas-chords.htm
Привет, Гость.
Предлагаем пройти революционный курс по гитаре.
Подарок от PrimaNota.Ru, забирай!