PrimaNota.ru - самый крупный в мире бесплатный архив песенных текстов, аккордов, табулатур и нот


Uncle Acid And The Deadbeats - Ill Cut You Down - таба, бас-таба, видео

Регистрация Запомнить меня
Войти через:  Facebook Google Twitter Vk Yandex Mail.ru

Uncle Acid And The Deadbeats - Ill Cut You Down - таба, бас-таба, видео

Печатать
Просмотров: 260
Уроки эстрадного вокала в Санкт-Петербурге
Tabbed by Five
www.facebook.com/uncleacid

================================================
Uncle Acid And The Deadbeats - I'll Cut You Down
================================================

This is just an amazing song.
Tuning is C# (C#F#BEG#C#).

The solos are not in this tab (yet). The Solo at the end and in between is
more or less just fiddling around the 12/15th fret.

# Intro x 2
Watch out for the hammer-ons:
Those are played in a slightly different rhythm the second time
C#|----0----0----0---0----0----0---0--0-------0----0----0---0----0----0---0---|
G#|---12---12---12h-15---12---12--12--9/12---12---12---12h-15---12---12--12---|
E |---------------------------------------------------------------------------|
B |---------------------------------------------------------------------------|
F#|---------------------------------------------------------------------------|
C#|---------------------------------------------------------------------------|

|---0---0---0---0---0---0---0---0-----0---0---0---0---0---0---0---|
|---8---8---8h-11---8---8---8---7/8---8---8---8h-11---8---8---8---|
|-----------------------------------------------------------------|
|-----------------------------------------------------------------|
|-----------------------------------------------------------------|
|-----------------------------------------------------------------|

|---0---0---0---0---0---0---0---0-----0---0---0---0---0---0---0---|
|---7---7---7h-10---7---7---7---5/7---7---7---7h-10---7---7---7---|
|-----------------------------------------------------------------|
|-----------------------------------------------------------------|
|-----------------------------------------------------------------|
|-----------------------------------------------------------------|

Intro-Ending after first playthrough
|---0---0---0---0---0---0---0---0----|
|---5---5---5---5---5---5---5---5/---|
|------------------------------------|
|------------------------------------|
|------------------------------------|
|------------------------------------|

Intro-Ending after second playthrough
|---0---0---0---0---0---0---0---0---0---0-----0---0---0---0---0---0---0---|
|---5---5---5---5---5---5---5---5---3---3/5---5---5---5---5---5---5---5---|
|-------------------------------------------------------------------------|
|-------------------------------------------------------------------------|
|-------------------------------------------------------------------------|
|-------------------------------------------------------------------------|


# Riff 1 x 4
Instead of the 7-7-5 to 9-9-7 slides you can also bar the seventh fret,
and just hammer on to the ninth fret. You can basically do this after every
full 4/4-tact, if you like...
|-------------------|-------------------|------------------------|--------------------|
|-------------------|-------------------|------------------------|--------------------|
|---9---9---9---9---|---9---9---9---9---|---7--7/9---9---9---9---|---9---9---9---9/---|
|---9---9---9---9---|---9---9---9---9---|---7--7/9---9---9---9---|---9---9---9---9/---|
|---7---7---7---7---|---7---7---7---7---|---5--5/7---7---7---7---|---7---7---7---7/---|
|-------------------|-------------------|------------------------|--------------------|

|--------------------------|-----------------------|
|--------------------------|-----------------------|
|---12----12----12----12---|---11---11---10---10---|
|---12----12----12----12---|---11---11---10---10---|
|---10----10----10----10---|----9----9----8----8---|
|--------------------------|-----------------------|

|-------------------|--------------------------------|
|-------------------|--------------------------------|
|---9---9---9---9---|---7--7/9---9-------------------|
|---9---9---9---9---|---7--7/9---9---7h-9-9-7--------|
|---7---7---7---7---|---5--5/7---7------------10-7---|
|-------------------|--------------------------------|


# Riff 2 x 2
|------------------------|------------------------|------------------------|
|------------------------|------------------------|------------------------|
|------------------------|------------------------|------------------------|
|---9---/14--14---9--9---|---9---/12--12---9--9---|---9---/14--14---9--9---|
|---7---/12--12---7--7---|---7---/10--10---7--7---|---7---/12--12---7--7---|
|---0--------------------|---0--------------------|---0--------------------|

|------------------------|
|------------------------|
|------------------------|
|------------------------|
|---7---7------------5---|
|---5---5---5h-7--6--3---|



# Riff 1 x 4
# Riff 2 x 2


# Riff 3
|-------------------|-------------------|
|-------------------|-------------------|
|-------------------|-------------------|
|---5---5---5---5---|---4---4---7---7---|
|---3---3---3---3---|---2---2---5---5---|
|-------------------|-------------------|

|----------------------------------------------------------|
|----------------------------------------------------------|
|----------------------------------------------------------|
|----------------------------------------------------------|
|---/5---5--7--5--7--5--7--5--7--5--7--5--7--5--7--5--7----|
|----------------------------------------------------------|

|-------------------|-------------------|
|-------------------|-------------------|
|-------------------|-------------------|
|---5---5---5---5---|---4---4---7---7---|
|---3---3---3---3---|---2---2---5---5---|
|-------------------|-------------------|

|--------------------------------------------------------------|
|--------------------------------------------------------------|
|--------------------------------------------------------------|
|--------------------------------------------------------------|
|---/7---7--10--7--10--7--10--7--/7---7--10--7--10--7--10--7---|
|--------------------------------------------------------------|


# Go Crazy 6 times
|------------------|------------------|------------------|------------------|
|------------------|------------------|------------------|------------------|
|--------7/-9--9---|---------7/-9--9--|--------7/-9--9---|---------7/-9--9--|
|--------7/-9--9---|---------7/-9--9--|--------7/-9--9---|---------7/-9--9--|
|--------5/-7--7---|---------5/-7--7--|--------5/-7--7---|---------5/-7--7--|
|---0--0-----------|---0--0-----------|---0--0-----------|---0--0-----------|
    p  p               p  p               p  p               p  p

|------------------|------------------|------------------|-----------------|
|------------------|------------------|------------------|-----------------|
|--------7/-9--9---|---------7/-9--9--|--------7/-9--9---|-----------------|
|--------7/-9--9---|---------7/-9--9--|--------7/-9--9---|-------------2---|
|--------5/-7--7---|---------5/-7--7--|--------5/-7--7---|---------2-2-2---|
|---0--0-----------|---0--0-----------|---0--0-----------|---0--0--0-0-0---|
    p  p               p  p               p  p               p  p  p p


# Outro
|-----------------------------------------------------------|
|-----------------------------------------------------------|
|-----------------------------------------------------------|
|-----------------------------------------------------------|
|---10-10-10-10-10-10-9-9-9-9-9-9-9-7-7-7-7-7-7-7-7-7-7-7---|
|-----------------------------------------------------------|

|-----------------------------------------------------------|
|-----------------------------------------------------------|
|-----------------------------------------------------------|
|---12-12-12-12-12-12-11-11-11-11-11-11-10-10-10-10-10-10---|
|---10-10-10-10-10-10--9--9--9--9--9--9--8--8--8--8--8--8---|
|-----------------------------------------------------------|

|-------------------------------------------------|
|-------------------------------------------------|
|-------------------------------------------------|
|---9~----9~----9~----9~---9~----9~----9~----9~---|
|---7~----7~----7~----7~---7~----7~----7~----7~---|
|-------------------------------------------------|





Have fun, Five :]


Legend
======
\ ... Slide down
/ ... Slide up
h ... Hammer-On
~ ... Vibrato
p ... Palm-Mute
Добавлено: 03.08.2013
Другие материалы по этой песне:
  • Аккорды и текст

Страница создана 03.08.2013
http://primanota.ru/uncle-acid-and-the-deadbeats/ill-cut-you-down-chords.htm
Привет, Гость.
Предлагаем пройти революционный курс по гитаре.
Подарок от PrimaNota.Ru, забирай!