PrimaNota.ru - самый крупный в мире бесплатный архив песенных текстов, аккордов, табулатур и нот


Unbroken - End Of A Lifetime - таба, видео

Регистрация Запомнить меня
Войти через:  Facebook Google Twitter Vk Yandex Mail.ru

Unbroken - End Of A Lifetime - таба, видео

Печатать
Просмотров: 84
PH = pinched harmonic
BU = Bend up

e|------------------|
B|------------------|
G|------------------|
D|-0--1--6--3--6--3-| x3
A|-0--1--6--3--6--3-|
D|-0--1--6--3--6--3-|

e|---------|
B|---------|
G|---------|
D|-0--1--6-|
A|-0--1--6-|
D|-0--1--6-|

    e|---------------------------|
    B|---------------------------|
GTR G|-7/8\7---------------------|
 1  D|--------0h1p0--0----3----6-| x8
    A|-5/6\5--0h1p0--0-00-3-00-6-|
    D|--------0h1p0--0-00-3-00-6-|
                       PM   PM

    e|-----------------------------|
    B|-----------------------------|
GTR G|-7/8\7--------------10----13-|
 2  D|--------0h1p0--0-------------| x8
    A|-5/6\5--0h1p0--0-00-8--00-11-|
    D|--------0h1p0--0-00----00----|
                       PM    PM

e|----------------------------------3h4p3-|
B|----------------------------------------|
G|--------------------------3h4p3---------|
D|--------------------1--1--------6-------|
A|-0-0--0-0--0-0--0-0-1--1----------------|
E|-0-0--0-0--0-0--0-0-1--1----------------|
   P M  P M  P M  P M 

e|---------------------------------|
B|---------------------------------|
G|---------------------------------|
D|--------------------6--6---------|
A|-0-0--0-0--0-0--0-0-6--6--06--06-|
D|-0-0--0-0--0-0--0-0-6--6--06--06-|
   P M  P M  P M  P M

e|---------------------------------3h4p3-|
B|---------------------------------------|
G|-------------------------3h4p3---------|
D|-0-----------------1--1--------6-------|
A|-0---0-0--0-0--0-0-1--1----------------|
D|-0---0-0--0-0--0-0-1--1----------------|
       P M  P M  P M 

e|---------------------------------|
B|---------------------------------|
G|---------------------------------|
D|--------------------6--6---------|
A|-0-0--0-0--0-0--0-0-6--6--06--06-|
D|-0-0--0-0--0-0--0-0-6--6--06--06-|
   P M  P M  P M  P M

    e|---------------------------|
    B|---------------------------|
GTR G|-7/8\7---------------------|
 1  D|--------0h1p0--0----3----6-| x4
    A|-5/6\5--0h1p0--0-00-3-00-6-|
    D|--------0h1p0--0-00-3-00-6-|
                       PM   PM

    e|-----------------------------|
    B|-----------------------------|
GTR G|-7/8\7--------------10----13-|
 2  D|--------0h1p0--0-------------| x4
    A|-5/6\5--0h1p0--0-00-8--00-11-|
    D|--------0h1p0--0-00----00----|
                       PM    PM

e|---------------------------|
B|---------------------------|
G|-7/8\7--7/8\7--------------|
D|---------------0----3----6-| x4
A|-5/6\5--5/6\5--0-00-3-00-6-|
D|---------------0-00-3-00-6-|
                       PM   PM

e|----------------------------------3h4p3-|
B|----------------------------------------|
G|--------------------------3h4p3---------|
D|--------------------1--1--------6-------|
A|-0-0--0-0--0-0--0-0-1--1----------------|
E|-0-0--0-0--0-0--0-0-1--1----------------|
   P M  P M  P M  P M 

e|---------------------------------|
B|---------------------------------|
G|---------------------------------|
D|--------------------6--6---------|
A|-0-0--0-0--0-0--0-0-6--6--06--06-|
D|-0-0--0-0--0-0--0-0-6--6--06--06-|
   P M  P M  P M  P M

e|------------------------------------|
B|------------------------------------|
G|---------------------------3PH--3PH-|
D|--------------------6--6------------|
A|-0-0--0-0--0-0--0-0-6--6--0----0----|
D|-0-0--0-0--0-0--0-0-6--6--0----0----|
   P M  P M  P M  P M

e|---------------------------------3h4p3-|
B|---------------------------------------|
G|-------------------------3h4p3---------|
D|-0-----------------1--1--------6-------|
A|-0---0-0--0-0--0-0-1--1----------------|
D|-0---0-0--0-0--0-0-1--1----------------|
       P M  P M  P M 

e|---------------------------------|
B|---------------------------------|
G|---------------------------------|
D|--------------------6--6---------|
A|-0-0--0-0--0-0--0-0-6--6--06--06-|
D|-0-0--0-0--0-0--0-0-6--6--06--06-|
   P M  P M  P M  P M

e|---------------------------------|
B|---------------------------------|
G|---------------------------------|
D|-0-------feedback----------------|
A|-0-------------------------------|
D|-0-------------------------------|

e|-------------------------|
B|-------------------------|
G|-------------------------|
D|-0-----------------------| x4
A|-0------------pick slide-|
D|-0-----------------------|

e|------------------|
B|------------------|
G|------------------|
D|-0--1--6--3--6--3-| x3
A|-0--1--6--3--6--3-|
D|-0--1--6--3--6--3-|

e|---------|
B|---------|
G|---------|
D|-0--1--6-|
A|-0--1--6-|
D|-0--1--6-|

e|------------------|
B|------------------|
G|------------------|
D|-0--1--6--3--6--3-| x3
A|-0--1--6--3--6--3-|
D|-0--1--6--3--6--3-|

e|---------|
B|---------|
G|---------|
D|-0--1--6-|
A|-0--1--6-|
D|-0--1--6-|

On Second repeat guitar 2 plays a bunch of weird guitar noise.

e|------------------|
B|------------------|
G|------------------|
D|-0--1--6--3--6--3-| x3
A|-0--1--6--3--6--3-|
D|-0--1--6--3--6--3-|

e|--------------------------------|
B|--------------------------------|
G|-191919191919191919191919-20-17-|
D|--------------------------------| x3
A|-171717171717171717171717-18-15-|
D|--------------------------------|

gradually bend up the 19s, then down again.

e|---------|
B|---------|
G|---------|
D|-0--1--6-|
A|-0--1--6-|
D|-0--1--6-|

e|----------------------------|
B|----------------------------|
G|-19191919191919191919191919-|
D|----------------------------| 
A|-17171717171717171717171717-|
D|----------------------------|

e|------------------|
B|------------------|
G|------------------|
D|-0--1--6--3--6--3-| x3
A|-0--1--6--3--6--3-|
D|-0--1--6--3--6--3-|

e|-------------------------------|
B|-------------------------------|
G|------19BU------19BU--19BU19BU-|
D|-------------------------------| x3
A|-1717-----171717----17---------|
D|-------------------------------|

e|---------|
B|---------|
G|---------|
D|-0--1--6-|
A|-0--1--6-|
D|-0--1--6-|

Добавлено: 01.12.2015
Вам также может быть интересно:
Другие материалы по этой песне:
  • Аккорды и текст

Страница создана 01.12.2015
http://primanota.ru/unbroken/end-of-a-lifetime-chords.htm
Привет, Гость.
Предлагаем пройти революционный курс по гитаре.
Подарок от PrimaNota.Ru, забирай!