PrimaNota.ru - самый крупный в мире бесплатный архив песенных текстов, аккордов, табулатур и нот


Unbelievable Truth - Solved - таба, видео

Регистрация Запомнить меня
Войти через:  Facebook Google Twitter Vk Yandex Mail.ru

Unbelievable Truth - Solved - таба, видео

Печатать
Просмотров: 66
unbelievable truth
solved

Chords:   EADGBE
       G  355433
       A  577655
       B  799877



[Riff: Intro + Verse 3X] (two electrics guitars)

e|--------------------------|------------------------|-------------------|
b|--------------------------|------------------------|-------------------|
g|--11-----11--9-------9----|--7-----7--6-------6----|--4----------------| 
D|------9-----------7-------|-----5----------4-------|--5----------------|
A|--------------------------|------------------------|-------------------|
E|--------------------------|------------------------|-------------------|
 |                          |                        |                   |  
e|--------------------------|------------------------|-------------------|
b|--------------------------|------------------------|-------------------|
g|--------------------------|------------------------|-------------------|
D|--12---------11-----------|--9--------7------------|-/12---------------|
A|--------------------------|------------------------|-------------------|
E|--------------------------|------------------------|-------------------|


[last riff] (two electrics guitars + bass)

e|--------------------------|------------------------|-------------------|
b|--------------------------|------------------------|-------------------|
g|--11-----11--9-------9----|--7-----7--6-------6----|--4----------------|
D|------9-----------7-------|-----5----------4-------|--5----------------|
A|--------------------------|------------------------|-------------------|
E|--------------------------|------------------------|-------------------|
 |                          |                        |                   |
e|--------------------------|------------------------|-------------------|
b|--------------------------|------------------------|-------------------|
g|--------------------------|------------------------|-------------------|
D|--12---------11-----------|--9--------7--------7/--|--12---------------|
A|--------------------------|------------------------|-------------------|
E|--------------------------|------------------------|-------------------|
 |                          |                        |                   |
G|--------------------------|------------------------|-------------------|
D|--------------------------|------------------------|-------------------|
A|--------------------------|------------------------|-------------------|
E|--10\--------9------------|------------------------|-------------------|


[Chorus] (electric guitar + electro-acoustic guitar + bass)

    G           A        B                      A
e|--------------------------|------------------------|
b|--------------7--5--7-----|-------------7--5--7----|
g|--7--4-----4-----------7--|----7--4----------------|
D|--------5-----------------|----------5-------------|
A|--------------------------|------------------------|
E|--------------------------|------------------------|
 |                          |                        |
G|--------------------------|------------------------|
D|--------------------------|------------------------|
A|--------------------------|------------------------|
E|--3-----------5--------7--|-------------------5----|


    G           A        B                      A
e|--------------------------|------------------------|
b|--------------7--5--7-----|-------------7--5--7----|
g|--7--4-----4-----------7--|----7--4----------------|
D|--------5-----------------|----------5-------------|
A|--------------------------|------------------------|
E|--------------------------|------------------------|
 |                          |                        |
G|--------------------------|------------------------|
D|--------------------------|------------------------|
A|--------------------------|------------------------|
E|--3-----------5--------7--|-------------------5----|

                                                    
    G           A        B                      A
e|--------------------------|------------------------|
b|--------------7--5--7-----|-------------7--5--7----|
g|--7--4-----4-----------7--|----7--4----------------|
D|--------5-----------------|----------5-------------|
A|--------------------------|------------------------|
E|--------------------------|------------------------|
 |                          |                        |
G|--------------------------|------------------------|
D|--------------------------|------------------------|
A|--------------------------|------------------------|
E|--3-----------5--------7--|-------------------5----|


    G           A        B                      A
e|--------------------------|-------------------------|
b|--------------7--5--7-----|-------------7--5--7-----|
g|--7--4-----4-----------7--|----7--4--------------7--|
D|--------5-----------------|----------5--------------|
A|--------------------------|-------------------------|
E|--------------------------|-------------------------|
 |                          |                         |
G|--------------------------|-------------------------|
D|--------------------------|-------------------------|
A|--------------------------|-------------------------|
E|--3-----------5--------7--|-------------------5-----|


[Bridge] (bass + electro-acoustic guitar)
                                              
e|--x--x--x--x--x--x--x--x--|--------------------------|
b|--x--x--x--x--x--x--x--x--|--0-----------------------|
g|--4--4--4--x--4--4--4--3--|--1-----------------------|
D|--5--5--5--x--5--5--5--4--|--2-----------------------|
A|--5--5--5--x--5--5--5--4--|--2-----------------------|
E|--3--3--3--x--3--3--3--2--|--0-----------------------|
 |                          |                          |
G|--------------------------|--------------------------|
D|--------------------------|--------------------------|
A|--------------------------|--------------------------|
E|--3--3--3-----3--3--3-----|--0--0--0-----0--0--0-----|


[Verse 3X] (two electrics guitars + one electro-acoustic guitar + bass)

e|--------------------------|------------------------|---------------------|
b|--------------------------|------------------------|---------------------|
g|--11-----11--9-------9----|--7-----7--6-------6----|--4------------------|
D|------9-----------7-------|-----5----------4-------|--5------------------|
A|--------------------------|------------------------|---------------------|
E|--------------------------|------------------------|---------------------|
 |                          |                        |                     |
e|--------------------------|------------------------|---------------------|
b|--------------------------|------------------------|---------------------|
g|--------------------------|------------------------|---------------------|
D|--12---------11-----------|--9---------7-------7/--|--12-----------------|
A|--------------------------|------------------------|---------------------|
E|--------------------------|------------------------|---------------------|
 |                          |                        |                     |
e|--------------------------|------------------------|---------------------|
b|--------------------------|------------------------|--0------------------|
g|--11---------9------------|--7---------6-----------|--4------------------|
D|--9----------7------------|--5---------4-----------|--5------------------|
A|--------------------------|------------------------|---------------------|
E|--------------------------|------------------------|---------------------|
 |                          |                        |                     |
G|--------------------------|------------------------|---------------------|
D|--------------------------|------------------------|---------------------|
A|--------------------------|------------------------|---------------------|
E|--10-10-10----9--9--9-----|--7--7--7----5--5--5----|--3--3--3---3--3--3--|


[Previous Chorus]

e|--------------------------|------------------------|---------------------|
b|--------------------------|------------------------|---------------------|
g|--11-----11--9-------9----|--7-----7--6-------6----|--4------------------|
D|------9-----------7-------|-----5----------4-------|--5------------------|
A|--------------------------|------------------------|---------------------|
E|--------------------------|------------------------|---------------------|
 |                          |                        |                     |
e|--------------------------|------------------------|---------------------|
b|--------------------------|------------------------|---------------------|
g|--------------------------|------------------------|---------------------|
D|--12---------11-----------|--9---------7-------7/--|--12-----------------|
A|--------------------------|------------------------|---------------------|
E|--------------------------|------------------------|---------------------|
 |                          |                        |                     |
e|--------------------------|------------------------|---------------------|
b|--------------------------|------------------------|--0------------------|
g|--11---------9------------|--7---------6-----------|--4------------------|
D|--9----------7------------|--5---------4-----------|--5------------------|
A|--------------------------|------------------------|---------------------|
E|--------------------------|------------------------|---------------------|
 |                          |                        |                     |
G|--------------------------|------------------------|---------------------|
D|--------------------------|------------------------|---------------------|
A|--------------------------|------------------------|---------------------|
E|--10-10-10----9--9--9-----|--7--7--7----5--5--5----|--3--3--3---3--3--3--|


G|--------------------------|
D|--------------------------|
A|--------------------------|
E|--3--3--3-----3--3--3-----|
 |                          |
e|--------------3--3--3--3--|
b|--------------3--3--3--3--|
g|--------------4--4--4--4--|
D|--------------5--5--5--5--|
A|--------------5--5--5--5--|
E|--------------3--3--3--3--|


[Chorus] (like the first chorus)


[Bridge] (electro-acoustic guitar + bass + two electrics guitars)

       
e|--------------------------|--------------------------|--------------------
------|
b|--------------------------|--------------------------|--------------------
------|
g|--------------------------|--------------------------|--------------------
------|
D|--------------------------|--------------------------|--------------------
------|
A|--------4-----------4--4--|--------5-----------5--5--|--------2-----------
2--2--|
E|--2--2--2--2--2--2--2--2--|--3--3--3--3--3--3--3--3--|--0--0--0--0--0--0--
0--0--|
 |                          |                          |
      |
G|--------------------------|--------------------------|--------------------
------|
D|--------------------------|--------------------------|--------------------
------|
A|--------------------------|--------------------------|--------------------
------|
E|--2--2--2--2--2--2--2--2--|--3--3--3--3--3--3--3--3--|--0--0--0--0--0--0--
0--0--|


     
e|--------------------------|--------------------------|--------------------
------|
b|--------------------------|--------------------------|--------------------
------|
g|--------------------------|--------------------------|--------------------
------|
D|--------------------------|--------------------------|--------------------
------|
A|--------4-----------4--4--|--------5-----------5--5--|--------2-----------
2--2--|
E|--2--2--2--2--2--2--2--2--|--3--3--3--3--3--3--3--3--|--0--0--0--0--0--0--
0--0--|
 |                          |                          |
      |
G|--------------------------|--------------------------|--------------------
------|
D|--------------------------|--------------------------|--------------------
------|
A|--------------------------|--------------------------|--------------------
------|
E|--2--2--2--2--2--2--2--2--|--3--3--3--3--3--3--3--3--|--0--0--0--0--0--0--
0--0--|


e|--------------------------|--------------------------|--------------------
------|
b|--------------------------|--------------------------|--------------------
------|
g|--------------------------|--------------------------|--------------------
------|
D|--------4--------4--4--4--|--------5--------5--5--5--|--------2--------2--
2--2--|
A|--4--4--4--4--4--4--4--4--|--5--5--5--5--5--5--5--5--|--2--2--2--2--2--2--
2--2--|
E|--2--2--2--2--2--2--2--2--|--3--3--3--3--3--3--3--3--|--0--0--0--0--0--0--
0--0--|
 |                          |                          |
      |
G|--------------------------|--------------------------|--------------------
------|
D|--------------------------|--------------------------|--------------------
------|
A|--------------------------|--------------------------|--------------------
------|
E|--2--2--2--2--2--2--2--2--|--3--3--3--3--3--3--3--3--|--0--0--0--0--0--0--
0--0--|
 |                          |                          |
      |
e|--------------------------|--------------------------|--------------------
------|
b|--------7--------7--------|--------8--------8--------|--------5--------5--
------|
g|-----6--6-----6--6--------|-----7--7-----7--7--------|-----4--4-----4--4--
------|
D|--4-----4--4--------------|--5--------5--------------|--2--------2--------
------|
A|--------------------------|--------------------------|--------------------
------|
E|--------------------------|--------------------------|--------------------
------|

                                                                           
e|--------------------------|--------------------------|--------------------
------|
b|--------------------------|--------------------------|--------------------
------|
g|--------------------------|--------------------------|--------------------
------|
D|--------4--------4--4--4--|--------5--------5--5--5--|--2-----------------
------|
A|--4--4--4--4--4--4--4--4--|--5--5--5--5--5--5--5--5--|--2-----------------
------|
E|--2--2--2--2--2--2--2--2--|--3--3--3--3--3--3--3--3--|--0-----------------
------|
 |                          |                          |
      |
G|--------------------------|--------------------------|--------------------
------|
D|--------------------------|--------------------------|--------------------
------|
A|--------------------------|--------------------------|--------------------
------|
E|--2--2--2--2--2--2--2--2--|--3--3--3--3--3--3--3--3--|--0-----------------
------|
 |                          |                          |
      |
e|--------------------------|--------------------------|--------------------
------|
b|--------7--------7--------|--------8--------8--------|--5-----------------
------|
g|-----6--6-----6--6--------|-----7--7-----7--7--------|--4-----------------
------|
D|--4-----4--4--------------|--5--------5--------------|--2-----------------
------|
A|--------------------------|--------------------------|--------------------
------|
E|--------------------------|--------------------------|--------------------
------|
 |                          |                          |
      |
e|--------------------------|--------------------------|--------------------
------|
b|--------------------------|--------------------------|--------------------
------|
g|--11-----11--9-------9----|--7-----7--6-------6------|--4-----------------
------|
D|------9-----------7-------|-----5----------4---------|--5-----------------
------|
A|--------------------------|--------------------------|--------------------
------|
E|--------------------------|--------------------------|--------------------
------|


[Chorus] (like the first chorus + keyboard)




-=- -=- -=- -=- -=- -=- -=- -=- -=- -=- -=-
Tabbed by:  -=- -=- -=- -=- -=- -=- -=- -=-
-=- -=- -=- -=- -=- -=- -=- -=- -=- -=- -=-
-=- -=- axel  [ axel@popnews.com ]  -=- -=-
-=- -=- -=- -=- -=- -=- -=- -=- -=- -=- -=-
Please write me.-=- -=- -=- -=- -=- -=- -=-
-=- -=- -=- -=- -=- -=- -=- -=- -=- -=- -=-









-=- -=- -=- -=- -=- -=- -=- -=- -=- -=- -=-
     What C You Want From Me ????!!!!
-=- -=- -=- -=- -=- -=- -=- -=- -=- -=- -=-

     
Добавлено: 23.10.2013
Другие материалы по этой песне:
  • Аккорды и текст

Страница создана 23.10.2013
http://primanota.ru/unbelievable-truth/solved-chords.htm
Привет, Гость.
Предлагаем пройти революционный курс по гитаре.
Подарок от PrimaNota.Ru, забирай!