PrimaNota.ru - самый крупный в мире бесплатный архив песенных текстов, аккордов, табулатур и нот


Unanimated - Diabolic Voices - таба, видео

Регистрация Запомнить меня
Войти через:  Facebook Google Twitter Vk Yandex Mail.ru

Unanimated - Diabolic Voices - таба, видео

Печатать
Просмотров: 65
-------------------------------------------------------------------------------

UNANIMATED-Diabolic Voices   from In the Light of Darkness 2009 Regain Records
-------------------------------------------------------------------------------
Tabbed by:NihilView
E-mail:


Tuning:Standard D  DGCFAd


 Let Ring

|--------7-----------------6-------------------------------------------------------------| INTRO CLEAN
|-------------8----------------7-------7--------------8--------------8-------------------|
|---9--------------9---------------8-----------------------8--------------8-----------7--|
|------------------------------------------------10-------------10--------------9--------|
|----------------------------------------------------------------------------------------|
|----------------------------------------------------------------------------------------|


|------------------------------------------------------------------------------------------|
|-------7---------------7------------------------------7------------7--------------------6-|
|-----------7----------------7-----------6-----------------7------------7-----------6------|
|--9--------------9-----------------8--------------9------------9-------------8------------|
|------------------------------------------------------------------------------------------|
|------------------------------------------------------------------------------------------|



|--5-------------------5---------------5-------------5--------------------------|
|--6-------------------6---------------6-------------6--------------------------|
|--7-------------------7------6--------7-------------7----6---------------------| VERSE 1
|--7----------8--------7------6--------7------8------7----6---------------------|
|--5----------8--------5------4--------5------8------5----4---------------------|
|-------------6-------------------------------6---------------------------------|



|---------------------------------------------------------------------------|
|--------7-----------------7------------------------------------------------|
|-------------7------------------7--------------6---------------------------| FILL 1+ VERSE 1
|---9----------------9-------------------8----------------------------------|
|---------------------------------------------------------------------------|
|---------------------------------------------------------------------------|




|--------------------------------------------------------------------------------------------------------|
|--------------------------------------------------------------------------------------------------------I
|---4--4-4--3--3--3-------------4444-------------------444-----------------------------------------------|
|---4--4-4--3--3--3-----22222----------5555---22222---------5555----111---444----------55----------------|
|---2--2-2--1--1--1---------------------------------------------------------------333-------666---333----|
|--------------------------------------------------------------------------------------------------------|


                2X
|---------------------------------------------------------------------------|
|---------------------------------------------------------------------------| FILL 2
|---------------------------------------------------------------------------|
|--------555-------------------555------------------------------------------|
|-3333----------666-----333----------666-----22---55------------------------|
|---------------------------------------------------------------------------|



|------------------------------------------------------------7-6v----------6-5vv-----|
|------------------------------------------------------------------------------------| BRIDGE+interlude
|------------------------------------------------------9vv---------9p8-8-----------8-|
|---2----------------------------------------3---------------------------------------|
|---2----------------2-----------------------1---------------------------------------|
|---0---3-2--0--3--1-0---3--2--0---3--1--0-------------------------------------------|





|----------------------------------------------7--11-p7--------------------------------------14br--|
|------8p7------8p7-------8p7---------------8------------8-7-----------------------15br------------|
|-9vv-------9--------9---------9--8vvv---9-------------------9-8--10p-9p7--9-----------------------| SOLO!
|--------------------------------------------------------------------------------------------------|
|--------------------------------------------------------------------------------------------------|
|--------------------------------------------------------------------------------------------------|



                                                           T      T        T       T                T
!---8-7-------7----------------------------------------------------------------------------------------!
!-------10-------10-8---10-8--7---8-7--5---7--5-4p5-vv-----12----12--p17--12--p19--12----p20--p19--12--!
!------------------------------------------------------------------------------------------------------!
!------------------------------------------------------------------------------------------------------!
!------------------------------------------------------------------------------------------------------!
!------------------------------------------------------------------------------------------------------!



                                                          2X

!----------------------------------------------------20p19p17---20p19p17---20p17-------17---------------!
!----------17--16--sl20-19----20-19--16---17vv------------------------------------19-------19-----------!
!--17-16----------------------------------------------------------------------------------------20------!
!-------------------------------------------------------------------------------------------------------!
!-------------------------------------------------------------------------------------------------------!
!-------------------------------------------------------------------------------------------------------!



!------------------------------------------------------------------------------------------------------!
!------------------------------------------------------------------------------------------------------!
!---17-------------------------------------------14--1617-p16-14---------------------------------------!
!--------19---17--16-----14p13p14-------14 1617-------------------1716-13-14vvv------------------------!
!------------------------------------------------------------------------------------------------------!
!------------------------------------------------------------------------------------------------------!




!---------------------------------------------------------------------------------------------!
!---------------------------------------------------------------------------------------------!BRIDGE 2.
!---------------------------------------------------------------------------------------------!
!---7777-------------------6666---------------------------------------------------------------!
!---------7777-------------------7777--------------77-----------------------------------------!
!----------------88---------------------88-------------88-------------------------------------!



AFTER BRIDGE REPEAT SONG STRUCTURE FROM BEGINING OF VERSE....








************************************
I T   tapping
| /   slide up
| \   slide down
| h   hammer-on
| p   pull-off
| v   vibrato
| +   harmonic
| x   Mute note
| b   Bend
| pb  Pre-bend
| br  Bend release
| pbr Pre-bend release
| brb Bend release bend

************************************
Добавлено: 16.12.2015
Другие материалы по этой песне:
  • Аккорды и текст

Страница создана 16.12.2015
http://primanota.ru/unanimated/diabolic-voices-chords.htm
Привет, Гость.
Предлагаем пройти революционный курс по гитаре.
Подарок от PrimaNota.Ru, забирай!