PrimaNota.ru - самый крупный в мире бесплатный архив песенных текстов, аккордов, табулатур и нот


Umphreys Mcgee - Make It Right - таба, видео

Регистрация Запомнить меня
Войти через:  Facebook Google Twitter Vk Yandex Mail.ru

Umphreys Mcgee - Make It Right - таба, видео

Печатать
Просмотров: 27
-------------------------------------------------------------------------------
                             Make It Right - Umphrey's Mcgee
-------------------------------------------------------------------------------
Tabbed by: Hunter Bauer
E-mail: bauerhunter11@gmail.com   5/24/2015

Intro
e|-------------------------------||------------------------------------------|
B|-------------------------------||------------------------------------------|
G|------------------------------o||-x3---------------------------------------|
D|-------------------2------4-5-o||---------------------2-----5--------------|
A|-2-0---3-2---5-3-----5---------||----2-0---3-2---5-3----5-----5------------|
E|-------------------------------||------------------------------------------|

Verse
e|---------------------------------------------------------------------------|
B|---------------------------------------------------------------------------|
G|---------------------------------------------------------------------------|
D|----5-5------------5-5-----------------------------------------------------|
A|--------5-5-2-2--------5-5-2-2---------------------------------------------|
E|-------------------------------1-1-----------------------------------------|

Chorus
       G    D/F#   F     C/E
e|-----3-----2-----1------0------------------------------------------------------|
B|-----0-----3-----1------1------------------------------------------------------|
G|-----0-----2-----2------0------------------------------------------------------|
D|-----0-----0-----3------2------------------------------------------------------|
A|-----2-----0-----3------3------------------------------------------------------|
E|-----3-----2-----1------0------------------------------------------------------|

Jake's riff during the chorus - mostly a rhythmic eighth note run 

     1 + 2 + 3 + 4 + 1 + 2 + 3 + 4 + 1 + 2 + 3 + 4 + 1 + 2 + 3 + 4 +
e|-------------------------------------------------------------------------------|
B|-------------5---------------5---------------3---------------------------------|
G|-------7-------7-------7-------7-------5-------5-------5-----5---5-------------|
D|---5-5---5-5-----5-4-4---4-4-----4-3-3---3-3-----3-2-2---2-2---2---------------|
A|-------------------------------------------------------------------------------|
E|-------------------------------------------------------------------------------|

Intro - Verse - Chorus - Verse - Intro - (Chorus to soloing over chorus chords) - Verse 

Solo is in G Mixolydian 

Chords and lyrics:
G                         D/F#                          F
       I didn't come for trouble,I've never been that sutble

C/E
There's no time to wait around tonight

G                   D/F#                   F                      
      Really oh my friend, how could you defend

C/E
A million good intentions sometimes never make it right

G                   D/F#                         F
     I won't make excuses, if I'm the one who chooses

    C/E
But it's so hard to swallow every time I know that I am wrong


Sorry if I'm stumblin', trying to say something

But I can't find the words I need to make a better song



I never wanted trouble

Would you think you're subtle

It's a little more than I think I'd like to try

I said I'd make amends,

We know how this one ends

The only thing existing here is how you've always been 

But maybe there's no reason, and nothing to believe in

But as it stands I'd rather waste my time and still be wrong

There's trouble with these questions, try to make connections

But maybe I should mention one more thing before I'm gone

Добавлено: 30.09.2015
Другие материалы по этой песне:
  • Аккорды и текст

Страница создана 30.09.2015
http://primanota.ru/umphreys-mcgee/make-it-right-chords.htm
Привет, Гость.
Предлагаем пройти революционный курс по гитаре.
Подарок от PrimaNota.Ru, забирай!