PrimaNota.ru - самый крупный в мире бесплатный архив песенных текстов, аккордов, табулатур и нот


Umphreys Mcgee - Dim Sum - таба, видео

Регистрация Запомнить меня
Войти через:  Facebook Google Twitter Vk Yandex Mail.ru

Umphreys Mcgee - Dim Sum - таба, видео

Печатать
Просмотров: 67
-------------------------------------------------------------------------------
			     DIM SUN - Umphrey's Mcgee
-------------------------------------------------------------------------------
Umphrey's Mcgee - Death By Stereo - Dim Sun
Tabbed by: The Berg

*This is my first tab, if you have any corrections, just leave them in the comments.
Also, listen to the song to figure out the timing/strumming.
Tuning: Standard
     							
e|---------0-----2----3----5/7------7----------------------------------------|
B|---------0-----3----5----7/8------7----------------------------------------|
G|----------------------------------7----------------------------------------|
D|----------------------------------9----------------------------------------|  2X
A|----------------------------------9----------------------------------------|
E|-0-------------------------------/7----------------------------------------|

e|-----5------------0----------------0----------3---------------2-----3------|
B|-----5------------0----------------1----------3---------------3-----3------|
G|-----5------------0----------------0----------4---------------2-----2------|
D|-----7------------2----------------2----------5-----------0---0-----0------|
A|-----7------------2----0---2---3---3---3--2---5---0---2--------------------|
E|-5---5---5----3---0---------------------------3----------------------------|

e|---------0-----2----3----5/7------7----------------------------------------|
B|---------0-----3----5----7/8------7----------------------------------------|
G|----------------------------------7----------------------------------------|
D|----------------------------------9----------------------------------------|  2X
A|----------------------------------9----------------------------------------|
E|-0-------------------------------/7----------------------------------------|
	 
e|-----5------------0----------------0----------3---------------2-----3------|
B|-----5------------0----------------1----------3---------------3-----3------|
G|-----5------------0----------------0----------4---------------2-----2------|
D|-----7------------2----------------2----------5-----------0---0-----0------|
A|-----7------------2----0---2---3---3---3--2---5---0---2--------------------|
E|-5---5---5----3---0---------------------------3----------------------------|
							
e|---------0-----2----3----5/7------7----------------------------------------|
B|---------0-----3----5----7/8------7----------------------------------------|
G|----------------------------------7----------------------------------------|
D|----------------------------------9----------------------------------------| 
A|----------------------------------9----------------------------------------|
E|-0-------------------------------/7----------------------------------------|
							
e|---------0-----2----3----5/7------7------7----6----------------------------|
B|---------0-----3----5----7/8------7------7----6----------------------------|
G|----------------------------------7------7----6----------------------------|
D|----------------------------------9------9----8----------------------------|  
A|----------------------------------9------9----8----------------------------|
E|-0-------------------------------/7------7----6----------------------------|
	
e|-----5------------0----------------3----------3-----------3----------------|
B|-----5------------0----------------1----------3-----------3----------------|
G|-----5------------0----------------0----------4-----------2----------------|
D|-----7------------2----------------2----------5-----------0----------------|
A|-----7------------2----0---2---3---3--2h3p2---5---0---2--------------------|
E|-5---5---5----3---0---------------------------3----------------------------|




************************************

| /   slide up
| \   slide down
| h   hammer-on
| p   pull-off
| ~   vibrato
| +   harmonic
| x   Mute note
| b   Bend
| pb  Pre-bend
| br  Bend release
| pbr Pre-bend release
| brb Bend release bend

************************************
Добавлено: 25.07.2013
Другие материалы по этой песне:
  • Аккорды и текст

Страница создана 25.07.2013
http://primanota.ru/umphreys-mcgee/dim-sum-chords.htm
Привет, Гость.
Предлагаем пройти революционный курс по гитаре.
Подарок от PrimaNota.Ru, забирай!