PrimaNota.ru - самый крупный в мире бесплатный архив песенных текстов, аккордов, табулатур и нот


Umphreys Mcgee - Cut The Cable - таба, видео

Регистрация Запомнить меня
Войти через:  Facebook Google Twitter Vk Yandex Mail.ru

Umphreys Mcgee - Cut The Cable - таба, видео

Печатать
Просмотров: 35
-------------------------------------------------------------------------------
                             CUT THE CABLE - Umphrey's Mcgee
-------------------------------------------------------------------------------
Tabbed by: Hunter Bauer     6/9/14
E-mail: rbauer7@uic.edu

Tab and timings for Similar Skin album version

Intro Chorus:
A > E > C > G

    A            E
I'm closer to my coffin now
    C              G               A
the offer's on the table but I'm unable 
          E
Found and lost somehow
                C               G
The situation's stable, cut the cable

Riff 1 (0:27), (1:17), (3:37)
e|---------------------------------------------------------------------------|
B|---------------------------------------------------------------------------|
G|---------------------------------------------------------------------------|
D|---------------------------------------------------------------------------|
A|--0h3h5------5--5--3---------3----------0h3h5-5-3-------3------------------|
E|----------3------------5-3-5---5------------------5-3-5--------------------|

Verse Chords (0:45), (1:25)
"If you want me to..."

Guitar 1 Verse:
    A  G  A  C  G
e|---------------------------------------------------------------------------|
B|---------------------------------------------------------------------------|
G|-----------5---------------------------------------------------------------|
D|--7--5--7--5--5------------------------------------------------------------|
A|--7--5--7--3--5------------------------------------------------------------|
E|--5--3--5-----3------------------------------------------------------------|

Guitar 2 Verse:
     A  G  A  C  G
e|---------------------------------------------------------------------------|
B|---2--0--2--1--------------------------------------------------------------|
G|---2--0--2--0--0-----------------------------------------------------------|
D|---2--0--2--2--0-----------------------------------------------------------|
A|------------3--2-----------------------------------------------------------|
E|---------------3-----------------------------------------------------------|

Riff 2: (2:14)

e|---9---------9---------7-------7-------8-------8-------7-------7-----------|
B|-----10---10---10---10---9---9---9---9---8---8---8---8---8---8---8---8-----|
G|--------9---------9--------9-------9-------9-------9-------7-------7-------|
D|---------------------------------------------------------------------------|
A|---------------------------------------------------------------------------|
E|---------------------------------------------------------------------------|

Chorus: (2:30)

    A            E
I'm closer to my coffin now
    C              G               A
The offer's on the table but I'm unable 
          E
Found and lost somehow
                C               G
The situation's stable, cut the cable


************************************

| /   slide up
| \   slide down
| h   hammer-on
| p   pull-off
| ~   vibrato
| +   harmonic
| x   Mute note
| b   Bend
| pb  Pre-bend
| br  Bend release
| pbr Pre-bend release
| brb Bend release bend

************************************
Добавлено: 13.09.2014
Другие материалы по этой песне:
  • Аккорды и текст

Страница создана 13.09.2014
http://primanota.ru/umphreys-mcgee/cut-cable-chords.htm
Привет, Гость.
Предлагаем пройти революционный курс по гитаре.
Подарок от PrimaNota.Ru, забирай!