PrimaNota.ru - самый крупный в мире бесплатный архив песенных текстов, аккордов, табулатур и нот


Umbral Presence - Tu No Estas Aqu? - таба, видео

Регистрация Запомнить меня
Войти через:  Facebook Google Twitter Vk Yandex Mail.ru

Umbral Presence - Tu No Estas Aqu? - таба, видео

Печатать
Просмотров: 75
Уроки эстрадного вокала в Санкт-Петербурге
TAB. DE UMBRAL      “TU NO ESTAS AQU?”

INTRO/ SOLO
E|---------------------------------------------------------------
B|---------------------------------------------------------------
G|-----------------------------------------------2---2-----------
D|------2---2--------5---5----------2---2------2---2---2---------
A|----2---2--------5---5---5------2---2-----0------------0-------
E|--0------------3--------------0--------------------------------

E|----------------------------
B|----------------------------
G|----------------------------	(2 veces)
D|-----5------4------2-2------
A|---3---3--2---2--0----------
E|----------------------------

	DISTORCIONADOR  GRAVE
E|--------------------------------------------------
B|--------------------------------------------------
G|--------------------------------------------------	(8 veces)
D|--------------------------------------------------
A|---4--4--4--0--5--5--5--0--4--4--4--0--5--5--5--0-
E|---2--2--2--0--3--3--3--0--2--2--2--0--3--3--3--0-


E|-------------------
B|-------------------
G|-------------------
D|---5-5-5-5-5-5-----
A|---5-5-5-5-5-5-----
E|---3-3-3-3-3-3-----


E|---------------------------------------------------------------
B|---------------------------------------------------------------
G|----------------------------------------------2---2------------
D|------2---2--------5---5----------2---2-----2---2---2----------
A|----2---2--------5---5---5------2---2-----0-------------0------
E|--0------------3--------------0--------------------------------

E|----------------------------
B|----------------------------
G|----------------------------	(2 veces)
D|-----5------4------2-2------
A|---3---3--2---2--0----------
E|----------------------------

	EMPIEZA LA LETRA
E|--------------------------------------------------
B|--------------------------------------------------
G|--------------------------------------------------	
D|--------------------------------------------------
A|---4--4--4--0--5--5--5--0--4--4--4--0--3--3--3--0-
E|---2--2--2--0--3--3--3--0--2--2--2--0--5--5--5--0-

   De nuevo   a  qui.....	



E|-------------------
B|-------------------
G|-------------------
D|---5-5-5-5-5-5-----
A|---5-5-5-5-5-5-----
E|---3-3-3-3-3-3-----


E|-------------------------------------
B|-------------------------------------
G|----------------------------2--2-2-------
D|---2--2-----5--5-----2-2----2--2-2----- (5 veces)
A|---2--2--0--5--5--0--2-2-0--0--0-0--0--
E|---0--0--0--3--3--0--0-0-0------------


E|--------------------------------
B|--------------------------------
G|--------------------------------(3 veces)
D|-----5-------4------2-2-2-2-2---
A|---3---3-0-2---2-0--0-0-0-0-0---
E|--------------------------------

	SEGUNDA ESTROFA
E|--------------------------------------------------
B|--------------------------------------------------
G|--------------------------------------------------	
D|--------------------------------------------------
A|---4--4--4--0--5--5--5--0--4--4--4--0--3--3--3--0-
E|---2--2--2--0--3--3--3--0--2--2--2--0--5--5--5--0-

   MI ALIENTO  SE ACABA........

E|-------------------
B|-------------------
G|-------------------
D|---5-5-5-5-5-5-----
A|---5-5-5-5-5-5-----
E|---3-3-3-3-3-3-----

 	TERCERA FRACE
E|--------------------------------------
B|--------------------------------------
G|---------------------------2--2-2-----
D|---2-2-----5--5-----2-2----2--2-2----- (5 veces)
A|---2-2--0--5--5--0--2-2-0--0--0-0--0--
E|---0-0--0--3--3--0--0-0-0-------------

   Y sigo    aqui    muriendo        y
     Sigo    aqu?    sin miedo
   Vasio     aqu?    me encuentro
   Cierro los ojos y  piensooo
     Sigo    aqui    muriendo 
E|--------------------------------
B|--------------------------------
G|--------------------------------(3 veces)
D|-----5-------4------2-2-2-2-2---
A|---3---3-0-2---2-0--0-0-0-0-0---
E|--------------------------------

       Tu  no estas    a q u i    


E|---------------------------------------------------
B|-*-------------------------------------------------
G|---------------------------------------------------	
D|---------------------------------------------------(10 veces)
A|----4--4--4--0--5--5--5--0--4--4--4--0--3--3--3--0-la letra a la 5ta.
E|-*--2--2--2--0--3--3--3--0--2--2--2--0--5--5--5--0-
     Salpico tu imagen     salpico........
E|-------------------
B|-------------------
G|-------------------
D|---5-5-5-5-5-5-----
A|---5-5-5-5-5-5-----
E|---3-3-3-3-3-3-----

E|--------------------------------------
B|--------------------------------------
G|---------------------------2--2-2-----
D|---2-2-----5--5-----2-2----2--2-2----- (5 veces)
A|---2-2--0--5--5--0--2-2-0--0--0-0--0--
E|---0-0--0--3--3--0--0-0-0-------------

   Y sigo    aqui    muriendo        y
     Sigo    aqu?    sin miedo
   Vasio     aqu?    me encuentro
   Cierro los ojos y  piensooo
     Sigo    aqui    muriendo 

E|----------------------0--
B|-*--------------------0--
G|----2-2-2-2-2-2-2-2-2-0--	
D|----2-2-2-2-2-2-2-2-2-0--
A|----0-0-0-0-0-0-0-0-0-0--
E|-*--------------------0--
	Sigo aqu? muriendooooooo

	SOLO DISTORCIONADOR 
E------------------------------------------------
B-*-----------------------------------------------
G------------------------------------------------
D--/7-7-9-7--7\5-5-7-5--5\3-5-4-2--7--5--4------- (5 VECES)
A--/7--------7\5--------5\3--------5--3--2-------
E-*-----------------------------------------------                              





	BAJO
E|---------------------------------------------------------------
B|---------------------------------------------------------------
G|---------------------------------------------------------------
D|---2-2-2-0-3-3-3-0-(MUCHAS VECES)-3-3-3-3-3-3-3-3-3-3-3-3-3-3--


E|-------------------------------------
B|-------------------------------------
G|----------------------------2--2-2------
D|---2--2-----5--5-----2-2----2--2-2----- (8veces)
A|---2--2--0--5--5--0--2-2-0--0--0-0--0--
E|---0--0--0--3--3--0--0-0-0--------------

   Y sigo    aqui    muriendo        y
     Sigo    aqu?    sin miedo
   Vasio     aqu?    me encuentro
   Cierro los ojos y  piensooo
     Sigo    aqu?    muriendo
     Sigo    aqu?    muriendo 
     Sigo    aqu?    muriendo 
     Sigo    aqu?    muriendo 



E|------------------------0-0--0-0------
B|------------------------0-0--0-0------
G|---------------------2--2-2--2-2------(5 veces)
D|---5-5-5-0--4-4-4-0--2--2-2--2-2------
A|---3-3-3-0--2-2-2-0--0--0-0--0-0--0---
E|---0-0-0-0--0-0-0-0--0--0-0--0-0--0---
     Tu  no estas    a q u iiiiiiiiiiiiiii    

E|---------------------------------------------------
B|-*-------------------------------------------------
G|---------------------------------------------------	
D|----4--4--4--0--5--5--5--0--4--4--4--0--5--5--5--0-
A|----4--4--4--0--5--5--5--0--4--4--4--0--5--5--5--0-
E|-*--2--2--2--0--3--3--3--0--2--2--2--0--3--3--3--0-

     HAAAAAAAAAAAAAAA!!!!!!!!!!!!

      TU  NO ESTAS  AQU?!!!!!   TU  NO  ESTAS  AQU?!!!!

	
FINAL
E|----------
B|----------
G|----------
D|---2------
A|---2------
E|---0------





Canci?n:

De nuevo aqu?, solo aqu?
En este cuarto lleno de llanto

Mirando al espejo, reflejo incompleto
Una imagen, un sue?o, una escoria con miedo

Tu no estas aqu?, 
tu no estas aqu? 

mi aliento se acaba poco a poco pensando en ti,
Otras ves, volvi? a oscurecer en mi interior,
en mi rinc?n, d?a tras d?a fumando la vida

siente mi dolor
siente mi dolor

 y sigo aqu? muriendo
sigo aqu? sin miedo
vaci? aqu? me encuentro
cierro los ojos y pienso
sigo aqu? muriendo

tu no estas aqu?
tu no estas aqu?
tu no estas aqu?

salpico tu imagen
salpico tu aroma,
salpico esa mugre, esa mugre que arrojas

ahora soy feliz
soy feliz
soy feliz






Добавлено: 04.12.2013
Другие материалы по этой песне:
  • Аккорды и текст

Страница создана 04.12.2013
http://primanota.ru/umbral-presence/tu-no-estas-aqu-chords.htm
Привет, Гость.
Предлагаем пройти революционный курс по гитаре.
Подарок от PrimaNota.Ru, забирай!