PrimaNota.ru - самый крупный в мире бесплатный архив песенных текстов, аккордов, табулатур и нот


Ulver - S?fn-?r P?? Alfers Lund - таба

Регистрация Запомнить меня
Войти через:  Facebook Google Twitter Vk Yandex Mail.ru

Ulver - S?fn-?r P?? Alfers Lund - таба

Печатать
Просмотров: 62
ULVER "S?fn-?r p?? Alfers lund"
From the LP "Kveldssanger"

H= Hammer on
P= Pull off
: = Repeat between the two : signs.


Riff A:
Guitar 1:
|---------------------------------------|
|5-----5--8--7--------4--5----5-7-4--5--|
|.---4-----------3--4------------------.|
|.-------------------------------------.|
|---------------------------------------|
|---------------------------------------|
				Play this riff once before guitar 2 comes in.
|8----7--5-------7-7----------------5-5-------------H-P--------------------|
|-----------8--------8-8-5--8----8------8-8-7-7----7-8-7-5-4-5----5-7-4---5|
|--------------------------------------------------------------------------|
|--------------------------------------------------------------------------|
|--------------------------------------------------------------------------|
|--------------------------------------------------------------------------|
								 End Riff A

RIff A1:
Guitar 2:
|---------------------------------------------| I can't figure out if the first four 
|---------------------------------------------| notes are right or if Baughb Matcuk's
|.--------0--------0-------------------------.| tab is right. I didn't see his tab
|.-----5--------4-----4--------2----*-----2--.| until I had tabbed the entire song!
|---2--------2--------------2----------2-----2|
|0-----------------------0-------2--0---------|

|-----------------------------------------------|
|-----------------------------------------------|
|-----------------------------------------------|
|------7-----------5-----------2----------2-----|
|---7-----7-----5-----5-----2----------2-----2--|
|5-----------3-----------0-------2--0-----------|

|-----------------------------------------------|
|-----------------------------------------------|
|------0----------------------------------------|
|---4-----4-----4-----4--+-----2----------------|
|2-----------2-----2--------2-------------------|
|------------------------0-------2--0-----------|
				     End Riff A1
Play riff A + A1 together a total of 3 times. The third time make a pause at the *.

Riff B:	
Guitar 2 plays Riff A1 once.
		       ____________________   ____________
Guitar 1:	      |1.		     |2.
|---------------------------5--7-----------| |-----------------------
|5-4-5--7---4--5------5--8--------8--7--8--| |-----------------------
|-----------------4------------------------| |5---4-2-4----5---4-2-4-
|------------------------------------------| |-----------------------
|------------------------------------------| |-----------------------
|------------------------------------------| |-----------------------

|------5-7-8-7---5-----5----------------------------------------------|
|--5-8-------------8------5---5-5--4-5------7----7--8---7------5------|
|4--------------------------------------------------------------------|
|---------------------------------------------------------------------|
|---------------------------------------------------------------------|
|---------------------------------------------------------------------|

Ending for guitar 2:

|---------------
|--------------- Play this riff at the + in riff A1
|------0--------
|---------4--2--
|---2-----------
|0--------------
Добавлено: 14.11.2013
Другие материалы по этой песне:
  • Аккорды и текст

Страница создана 14.11.2013
http://primanota.ru/ulver/sfn-r-p-alfers-lund-chords.htm
Привет, Гость.
Предлагаем пройти революционный курс по гитаре.
Подарок от PrimaNota.Ru, забирай!