PrimaNota.ru - самый крупный в мире бесплатный архив песенных текстов, аккордов, табулатур и нот


Ultraspank - Where - аккорды и текст, таба, видео

Регистрация Запомнить меня
Войти через:  Facebook Google Twitter Vk Yandex Mail.ru

Ultraspank - Where - аккорды и текст, таба, видео

Печатать
Просмотров: 253
Уроки эстрадного вокала в Санкт-Петербурге
Where
Ultraspank
Artist: Ultraspank
Song: Where
Album: Progress

Tabbed by Benjamin Bach / Denmark.

This is chords for the acoustic part of the
song. I am aware that an electric guitar plays
along!!!

Stick a capo on 1st fret.

Intro / Verse. Listen For rythm.

#|--B---B---B---B---A---

E|--0----0----0----0----0----
B|--0----0----0----0----0----
G|--4----4----4----4----2----
D|--4----4----4----4----2----
A|--2----0----2----0----0----
E|--X----X----0----X----X----


Chorus. Listen For rythm.

#|--B---B---A---A---

E|--0----0----0----0----
B|--0----0----0----0----
G|--4----4----2----2----
D|--4----4----2----0----
A|--2----0----0----0----
E|--X----X----0----X----


Bridge. B all the way.

The "Iiiiiiiiiyyyyooooooooo"-part is played
like the verse. Then shift to the chorus part
when he starts singning the chorus... or whatever...
'cause both parts fit.

Enjoy!


     
Добавлено: 11.06.2013
Другие материалы по этой песне:
  • Аккорды и текст

Страница создана 27.02.2012
http://primanota.ru/ultraspank/where-chords.htm
Привет, Гость.
Предлагаем пройти революционный курс по гитаре.
Подарок от PrimaNota.Ru, забирай!