PrimaNota.ru - самый крупный в мире бесплатный архив песенных текстов, аккордов, табулатур и нот


Ultraje A Rigor - Filha Da Puta - аккорды и текст, видео

Регистрация Запомнить меня
Войти через:  Facebook Google Twitter Vk Yandex Mail.ru

Ultraje A Rigor - Filha Da Puta - аккорды и текст, видео

Печатать
Просмотров: 129
Filha Da Puta
Ultraje A Rigor
SONG: FILHA DA PUTA
ARTIST: ULTRJE A RIGOR
ALBUM: 18 ANOS SEM TIRAR
TABBED BY Rafael Olivares

Intro (play it twice) (00:01):
e---------------------|------------------|
B---------------------|------------------|
G---------------------|---7-7-7-7-7--5---|
D---7---5---2-2-2-2---|---7-7-7-7-7--5---|
A---7---5---2-2-2-2---|---5-5-5-5-5--3---|
E---5---3---0-0-0-0---|------------------|
\                    /
 \______3 times_____/




Verse ("Morar nesse país...") (00:12):
e--------------------------|--------------------------|
B--------------------------|--------------------------|
G-------------7777---------|-------------7777---9999--|
D--77777777---7777---9999--|--77777777---7777---9999--|
A--77777777---5555---9999--|--77777777---5555---7777--|
E--55555555----------7777--|--55555555----------------|



Pre chorus ("Não que eu tenha nada contra...") (00:21):
e---------------------------------------------|
B---------------------------------------------|
G--------7777------9999-7777-----------9999---|
D---9999-7777-7777-9999-7777-7777-999--9999---|
A---9999-5555-7777-777--5555-7777-9999-7777---|
E---7777------5555-----------5555-7777--------|



Chorus ("Filha da puta...") (00:33)
Play 6 times:
e---------------------|
B---------------------|
G---------------------|
D---7---5---2-2-2-2---|
A---7---5---2-2-2-2---|
E---5---3---0-0-0-0---|



After chorus (00:43):
Play twice:
e-----------5-----------5-----------5-----------5---|
B---5---8-------5---8-------5---8-------5---8-------|
G---------------------------------------------------|
D---------------------------------------------------|
A---------------------------------------------------|
E---------------------------------------------------|

e------------5-------8-8---12-12-12-12-12-12---|
B---5---8--------5-----------------------------|
G----------------------------------------------|
D----------------------------------------------|
A----------------------------------------------|
E----------------------------------------------|

Well, that's it, I think. See you later.
     
Добавлено: 11.11.2013
Другие материалы по этой песне:
  • Аккорды и текст

Страница создана 31.07.2012
http://primanota.ru/ultraje-a-rigor/filha-da-puta-chords.htm
Привет, Гость.
Предлагаем пройти революционный курс по гитаре.
Подарок от PrimaNota.Ru, забирай!