PrimaNota.ru - самый крупный в мире бесплатный архив песенных текстов, аккордов, табулатур и нот


Ultima Thule - Vikingabalk - таба, видео

Регистрация Запомнить меня
Войти через:  Facebook Google Twitter Vk Yandex Mail.ru

Ultima Thule - Vikingabalk - таба, видео

Печатать
Просмотров: 74
-------------------------------------------------------------------------------
                             VIKINGABALK - ULTIMA THULE
-------------------------------------------------------------------------------
Tabbed by:Espen77
E-mail:espen.flyfisher@outlook.com

Tuning:standard
                     Intro/ Riff 1
e|---------------------------------------------------------------------------
B|---------------------------------------------------------------------------
G|---------------------------------------------------------------------------
D|-------------0-------------------------------------------------------------
A|----7--5--3------7--5--3--2----3--2---2-3-2--------------------------------
E|------------------------------------5---------5----------------------------

e|---------------------------------------------------------------------------
B|--------4-------4---------4------------------------------------------------
G|----2---2---5---2-----2---2----2-2-2-2------2------------------------------
D|----2-------5---------2--------2-2-2-2---5--2------------------------------
A|----0-------3---------0--------0-0-0-0---5--0------------------------------ 
E|-----------------------------------------3---------------------------------


                      Riff 2
  guitar 1 
e|----5--3--1--0----0--5--3--1--0----0--1--0---------------------------------
B|--------------------------------------------3--1--0------------------------
G|-----------------------------------------------------2---------------------
D|--------------------------------------------------------------------------- x2
A|---------------------------------------------------------------------------
E|---------------------------------------------------------------------------

  guitar 2
e|---------------------------------------------------------------------------
B|---------------------------------------------------------------------------
G|---5-----2-------5-----2-2-2-2---2----------------------------------------- x2 
D|---5--5--2--2----5--5--2-2-2-2-5-2-----------------------------------------
A|---3--5--0--2----3--5--0-0-0-0-5-0-----------------------------------------
E|------3-----0-------3----------3-------------------------------------------

e|---------------------------------------------------------------------------
B|---------------------------------------------------------------------------
G|----2-2-2-2-----2-2-2-2-----2-2-2-2-----2----------------------------------
D|----2-2-2-2-5---2-2-2-0-5---2-2-2-2-5---2----------------------------------
A|----0-0-0-0-5---0-0-0-0-5---0-0-0-0-5---0----------------------------------
E|------------3-----------3-----------3--------------------------------------
    
    
                      Verse     
e|---------------------------------------------------------------------------
B|---------------------------------------------------------------------------
G|---2-2-2-2---------5-5-5-5-----------2-2-2-2------------2-2-2-2---2-2-2-2--
D|---2-2-2-2-2-2-2-2-5-5-5-5-2-2-2-2---2-2-2-2--2-2-2-2---2-2-2-2-5-2-2-2-2--
A|---0-0-0-0-2-2-2-2-3-3-3-3-2-2-2-2---0-0-0-0--2-2-2-2---0-0-0-0-5-0-0-0-0--
E|-----------0-0-0-0---------0-0-0-0------------0-0-0-0-----------3----------
           


                      Chorus
e|---------------------------------------------------------------------------
B|---------------------------------------------------------------------------
G|--------5-----2-------5-----2-2-2-2---2-2-2-2------------------------------
D|--------5--5--2--2----5--5--2-2-2-2-5-2-2-2-2------------------------------ x2
A|--0-2---3--3--0--2----3--3--0-0-0-0-3-0-0-0-0------------------------------
E|-----------3-----0-------3----------3--------------------------------------

e|---------------------------------------------------------------------------
B|---------------------------------------------------------------------------
G|---------2-2-2-2----2------------------------------------------------------
D|-----5---2-2-2-0-5--2------------------------------------------------------
A|-----5---0-0-0-0-5--0------------------------------------------------------
E|-----3-----------3---------------------------------------------------------


  guitar 1             Riff 1
e|---------------------------------------------------------------------------
B|---------------------------------------------------------------------------
G|---------------------------------------------------------------------------
D|-------------0-------------------------------------------------------------
A|----7--5--3------7--5--3--2----3--2---2-3-2--------------------------------
E|------------------------------------5---------5----------------------------

  guitar 2
e|---------------------------------------------------------------------------
B|---------------------------------------------------------------------------
G|---5-----2-------5-----2-2-2-2---2----------------------------------------- 
D|---5--5--2--2----5--5--2-2-2-2-5-2-----------------------------------------
A|---3--5--0--2----3--5--0-0-0-0-5-0-----------------------------------------
E|------3-----0-------3----------3-------------------------------------------



                      Riff 2
  guitar 1 
e|----5--3--1--0----0--5--3--1--0----0--1--0---------------------------------
B|--------------------------------------------3--1--0------------------------
G|-----------------------------------------------------2---------------------
D|--------------------------------------------------------------------------- 
A|---------------------------------------------------------------------------
E|---------------------------------------------------------------------------

  guitar 2
e|---------------------------------------------------------------------------
B|---------------------------------------------------------------------------
G|---5-----2-------5-----2-2-2-2---2----------------------------------------- 
D|---5--5--2--2----5--5--2-2-2-2-5-2-----------------------------------------
A|---3--5--0--2----3--5--0-0-0-0-5-0-----------------------------------------
E|------3-----0-------3----------3-------------------------------------------

Play loud and have fun :)

************************************

| /   slide up
| \   slide down
| h   hammer-on
| p   pull-off
| ~   vibrato
| +   harmonic
| x   Mute note
| b   Bend
| pb  Pre-bend
| br  Bend release
| pbr Pre-bend release
| brb Bend release bend

************************************
Добавлено: 28.09.2015
Вам также может быть интересно:
Другие материалы по этой песне:
  • Аккорды и текст

Страница создана 28.09.2015
http://primanota.ru/ultima-thule/vikingabalk-chords.htm
Привет, Гость.
Предлагаем пройти революционный курс по гитаре.
Подарок от PrimaNota.Ru, забирай!