PrimaNota.ru - самый крупный в мире бесплатный архив песенных текстов, аккордов, табулатур и нот


Ultima Thule - VI Sålde Våran Hemman - таба, видео

Регистрация Запомнить меня
Войти через:  Facebook Google Twitter Vk Yandex Mail.ru

Ultima Thule - VI Sålde Våran Hemman - таба, видео

Печатать
Просмотров: 96
-------------------------------------------------------------------------------
                             Vi Sålde Våran Hemman - Ultima Thule
-------------------------------------------------------------------------------
Tabbed by:Espen77
E-mail:Espen.flyfisher@outlook.com

Tuning:Standard

  Intro
e|---------------------------------------------------------------------------|
B|---------------------------------------------------------------------------|
G|-----------------------------------------------3---------------------------|
D|------7-7------------------------------7-7-5-7---5---0-3-3-5-5-7-----------|
A|---5------5-7-8-5---5-7-7-4-4-5-----5--------------------------------------|
E|---------------------------------------------------------------------------|


e|---------------------------------------------------------------------------|
B|---------------------------------------------------------------------------|
G|---------------3---3-2-----------------------------------------------------|
D|---0-3-7-5-3-5---------3--0-2-0--------------------------------------------|
A|--------------------------------4------------------------------------------|
E|---------------------------------------------------------------------------|


e|---------------------------------------------------------------------------|
B|---------------------------------------------------------------------------|
G|---------3-----------------------------------------------------------------|
D|---0-2-3---0---0-2-3-3-2-2--0--------------------------------------------|
A|-4-------------------------------------------------------------------------|
E|---------------------------------------------------------------------------|

Play loud and have fun :)
************************************

| /   slide up
| \   slide down
| h   hammer-on
| p   pull-off
| ~   vibrato
| +   harmonic
| x   Mute note
| b   Bend
| pb  Pre-bend
| br  Bend release
| pbr Pre-bend release
| brb Bend release bend

************************************
Добавлено: 28.09.2015
Другие материалы по этой песне:
  • Аккорды и текст

Страница создана 28.09.2015
http://primanota.ru/ultima-thule/vi-salde-varan-hemman-chords.htm
Привет, Гость.
Предлагаем пройти революционный курс по гитаре.
Подарок от PrimaNota.Ru, забирай!