PrimaNota.ru - самый крупный в мире бесплатный архив песенных текстов, аккордов, табулатур и нот


Ultima Thule - Skinhead - таба, видео

Регистрация Запомнить меня
Войти через:  Facebook Google Twitter Vk Yandex Mail.ru

Ultima Thule - Skinhead - таба, видео

Печатать
Просмотров: 180
Skinhead By:Ultima Thule.


Lead:
E|-----------------------------------|
B|-----------------------------------|
G|-----------------------------------|
D|--6-5------------------------------|
A|------6-3---6-5--------------------|
E|----------------6-3---3-4-4-6-4-3--|

Verse:
    C           G           Ab          G
E|--------------------------------------------------|
B|--------------------------------------------------|
G|--------------------------------------------------|
D|--5--5--5--5--------------------------------------|
A|--3--3--3--3--5--5--5--5--6--6--6--6--5--5--5--5--|
E|--------------3--3--3--3--4--4--4--4--3--3--3--3--|

Chorus:
       Eb    Bb    C     Ab    Eb    Bb    G
E|-----------------------------------------------|
B|-----------------------------------------------|
G|-----------------------------------------------|
D|-----8-----------5-----------8-----------------|
A|-----6-----8-----3-----6-----6-----8-----5-----|
E|-----------6-----------4-----------6-----3-----|
Let every chord ring.

Bridge:
   G                                   Ab                G
E|------------------------------------------------------------------------|
B|------------------------------------------------------------------------|
G|------------------------------------------------------------------------|
D|------------------------------------------------------------------------|
A|------------------------------------------------------------------------|
E|-3-3-3-3--3-3-3-3--3-3-3-3--3-3-3-3--4-4-4-4--4-4-4-4--3-3-3-3--3-3-3-3-|
   . . . .  . . . .  . . . .  . . . .  . . . .  . . . .  . . . .  . . . .

Lead:
E|-----------------------------------|
B|-----------------------------------|
G|-----------------------------------|
D|--7-6------------------------------|
A|------7-4---7-6--------------------|
E|----------------7-4---4-5-5-7-5-4--|

Chorus:
       E     B     C#    A     E     B     Ab
E|-----------------------------------------------|---|
B|-----------------------------------------------|---|
G|-----------------------------------------------|---|
D|-----9-----------6-----------9-----------------|-9-|
A|-----7-----9-----4-----7-----7-----9-----6-----|-7-|
E|-----0-----7-----------5-----0-----7-----4-----|-0-|
Let all chords ring.                              Last time.

By:themechanix100
Добавлено: 26.11.2013
Другие материалы по этой песне:
  • Аккорды и текст

Страница создана 26.11.2013
http://primanota.ru/ultima-thule/skinhead-chords.htm
Привет, Гость.
Предлагаем пройти революционный курс по гитаре.
Подарок от PrimaNota.Ru, забирай!