PrimaNota.ru - самый крупный в мире бесплатный архив песенных текстов, аккордов, табулатур и нот


Ultima Thule - Lejonet Från Norden - таба, видео

Регистрация Запомнить меня
Войти через:  Facebook Google Twitter Vk Yandex Mail.ru

Ultima Thule - Lejonet Från Norden - таба, видео

Печатать
Просмотров: 124
Уроки эстрадного вокала в Санкт-Петербурге
-------------------------------------------------------------------------------
                             Lejonet från Norden - Ultima Thule
-------------------------------------------------------------------------------
Tabbed by:Espen77
E-mail:Espen.flyfisher@outlook.com

Tuning:standard

  Intro
e|---------------------------------------------------------------------------|
B|---------------------------------------------------------------------------|
G|-------5--5--5--5----------------------------------------------------------|
D|-------5--5--5--5----------------------------------------------------------|
A|-------3--3--3--3----------------------------------------------------------|
E|---------------------------------------------------------------------------|
   Listen to the song for strumming patterns, the chords are repeated more than 4 times


  Verse
e|---------------------------------------------------------------------------|
B|---------------------------------------------------------------------------|
G|----5-5-5-5--3-3-3-3-------------------------5-5-5-5-----------------------|
D|----5-5-5-5--3-3-3-3--6-6-6-6--5-5-5--3-3-3--5-5-5-5-----------------------|
A|----3-3-3-3--1-1-1-1--6-6-6-6--5-5-5--3-3-3--3-3-3-3-----------------------|
E|----------------------4-4-4-4--3-3-3--1-1-1--------------------------------|

  Riff 1
e|---------------------------------------------------------------------------|
B|---------------------------------------------------------------------------|
G|---------------------------------------------------------------------------|
D|-------------3-5---3-------------------------------------------------------|
A|----3--5-6------------6-5-3------------------------------------------------|
E|---------------------------------------------------------------------------|


  Chorus
e|---------------------------------------------------------------------------|
B|---------------------------------------------------------------------------|
G|----7-7-7-7-----------5--3-3-3-3---7---------------------------------------|
D|----7-7-7-7--3-3-3-3--5--3-3-3-3---7---------------------------------------|
A|----5-5-5-5--3-3-3-3--3--1-1-1-1---5---------------------------------------|
E|-------------1-1-1-1-------------------------------------------------------|

  Riff 2
e|--------------------5-5-5-5------------------------------------------------|
B|----3-3-3-3-3-3--6-----------6-5-------------------------------------------|
G|----------------------------------7-7-7-7-7-7--5h3-------------------------|
D|----------------------------------------------------7----------------------|
A|---------------------------------------------------------------------------|
E|---------------------------------------------------------------------------|

e|---------------------------------------------------------------------------|
B|---------------------------------------------------------------------------|
G|----5-5-5-5--3-3-3-3--5----------------------------------------------------|
D|----3-3-3-3--1-1-1-1--5--6--5--3-------------------------------------------|
A|----------------------3--6--5--3-------------------------------------------|
E|-------------------------4--3--1-------------------------------------------|


  Outro
e|--------------------7-7-7-7------------------------------------------------|
B|----5-5-5-5-5-5--8-----------8-7-------------------------------------------|
G|----------------------------------9-9-9-9-9-9--7h5-------------------------|
D|----------------------------------------------------9----------------------|
A|---------------------------------------------------------------------------|
E|---------------------------------------------------------------------------|

e|---------------------------------------------------------------------------|
B|---------------------------------------------------------------------------|
G|----9-9-9-9-----------7----5-5-5-5--7--------------------------------------|
D|----9-9-9-9--5-5-5-5--7----5-5-5-5--7--------------------------------------|
A|----7-7-7-7--5-5-5-5--5----3-3-3-3--5--------------------------------------|
E|-------------3-3-3-3-------------------------------------------------------|


play loud and have fun :)
************************************

| /   slide up
| \   slide down
| h   hammer-on
| p   pull-off
| ~   vibrato
| +   harmonic
| x   Mute note
| b   Bend
| pb  Pre-bend
| br  Bend release
| pbr Pre-bend release
| brb Bend release bend

************************************
Добавлено: 28.09.2015
Другие материалы по этой песне:
  • Аккорды и текст

Страница создана 28.09.2015
http://primanota.ru/ultima-thule/lejonet-fran-norden-chords.htm
Привет, Гость.
Предлагаем пройти революционный курс по гитаре.
Подарок от PrimaNota.Ru, забирай!