PrimaNota.ru - самый крупный в мире бесплатный архив песенных текстов, аккордов, табулатур и нот


Ulrich Schnauss - Knuddlemaus - таба, видео

Регистрация Запомнить меня
Войти через:  Facebook Google Twitter Vk Yandex Mail.ru

Ulrich Schnauss - Knuddlemaus - таба, видео

Печатать
Просмотров: 95
STANDARD TUNING EADGBE

Tried my best to show a timeline of the changes, just listen and I'm sure you'll
be able to figure out the transitions. Cheers!


Guitar I         (Repeats Throughout Song)

E|-----------------------------------------------------|
B|-----------------------------------------------------|
G|-----------------------------------------------------|
D|--------12--------12---12--------17--------17---17---|
A|---10--------10-------------15--------15-------------|
E|-----------------------------------------------------|


Guitar II Enters (0:19)               x4  (Repeats Throughout Song)

E|-------------------------------------|
B|-------------------------------------|
G|--------12---16---11---12--------0---|
D|---12-----------------------12-------|
A|-------------------------------------|
E|-------------------------------------|


When bass starts guitar II ends and picks back up at (0:58)

Bass Enters (0:38)

G|----------------------------------------------|
D|----------------------------------------------|
A|----------------------------------------------|
E|---10/15\8---8---8/10---10/15\8---8---8---8---|



Guitar II   (0:58)                 x4

E|-------------------------------------|
B|-------------------------------------|
G|--------12---16---11---12--------0---|
D|---12-----------------------12-------|
A|-------------------------------------|
E|-------------------------------------|


Guitar II (1:36)                   x4

E|-------------------------------------|
B|-------------------------------------|
G|--------12---16---11---12--------0---|
D|---12-----------------------12-------|
A|-------------------------------------|
E|-------------------------------------|


Guitar II (2:14)                   x8

E|-------------------------------------|
B|-------------------------------------|
G|--------12---16---11---12--------0---|
D|---12-----------------------12-------|
A|-------------------------------------|
E|-------------------------------------|

Guitar II CHORUS (2:53)

E|----------------------------------------------------------------------------|
B|-17---15---20---15---13---13---12---15---8---12---12---13---12---13---15--8-|
G|----------------------------------------------------------------------------|
D|----------------------------------------------------------------------------|
A|----------------------------------------------------------------------------|
E|----------------------------------------------------------------------------|



E|---------------------------------------------------------|
B|---17---15---20---15---13---13---12---15---8---12---12---|
G|---------------------------------------------------------|
D|---------------------------------------------------------|
A|---------------------------------------------------------|

Guitar II   (3:12)                    x4

E|-------------------------------------|
B|-------------------------------------|
G|--------12---16---11---12--------0---|
D|---12-----------------------12-------|
A|-------------------------------------|
E|-------------------------------------|

Guitar II   (4:10)                    x4

E|-------------------------------------|
B|-------------------------------------|
G|--------12---16---11---12--------0---|
D|---12-----------------------12-------|
A|-------------------------------------|
E|-------------------------------------|


Guitar II CHORUS  (4:29)

E|----------------------------------------------------------------------------|
B|--17---15---20---15---13---13---12---15---8---12---12---13---12---13--15--8-|
G|----------------------------------------------------------------------------|
D|----------------------------------------------------------------------------|
A|----------------------------------------------------------------------------|
E|----------------------------------------------------------------------------|



E|---------------------------------------------------------|
B|---17---15---20---15---13---13---12---15---8---12---12---|
G|---------------------------------------------------------|
D|---------------------------------------------------------|
A|---------------------------------------------------------|


Guitar II  (5:07)                   x8

E|-------------------------------------|
B|-------------------------------------|
G|--------12---16---11---12--------0---|
D|---12-----------------------12-------|
A|-------------------------------------|
E|-------------------------------------|

Guitar II CHORUS (5:46)

E|----------------------------------------------------------------------------|
B|-17---15---20---15---13---13---12---15---8---12---12---13---12---13---15--8-|
G|----------------------------------------------------------------------------|
D|----------------------------------------------------------------------------|
A|----------------------------------------------------------------------------|
E|----------------------------------------------------------------------------|



E|---------------------------------------------------------|
B|---17---15---20---15---13---13---12---15---8---12---12---|
G|---------------------------------------------------------|
D|---------------------------------------------------------|
A|---------------------------------------------------------|

Guitar II (6:04)                   x4

E|-------------------------------------|
B|-------------------------------------|
G|--------12---16---11---12--------0---|
D|---12-----------------------12-------|
A|-------------------------------------|
E|-------------------------------------|

Ulrich Schnauss Facebook : https://www.facebook.com/ulrichschnauss
Ulrich Schnauss Myspace  : http://www.myspace.com/ulrichschnauss#!
Ulrich Schnauss Wikipedia: http://en.wikipedia.org/wiki/Ulrich_Schnauss
Добавлено: 01.09.2013
Другие материалы по этой песне:
  • Аккорды и текст

Страница создана 15.07.2013
http://primanota.ru/ulrich-schnauss/knuddlemaus-chords.htm
Привет, Гость.
Предлагаем пройти революционный курс по гитаре.
Подарок от PrimaNota.Ru, забирай!