PrimaNota.ru - самый крупный в мире бесплатный архив песенных текстов, аккордов, табулатур и нот


Ulli Bogershausen - Secret Story - таба, видео

Регистрация Запомнить меня
Войти через:  Facebook Google Twitter Vk Yandex Mail.ru

Ulli Bogershausen - Secret Story - таба, видео

Печатать
Просмотров: 111
Уроки эстрадного вокала в Санкт-Петербурге
Enjoy.



                                 |-3-| |-3-|                       
      E  E  E  E   Q     Q       S S S S S S S S  S S S S Q    E   
D||------------4--(4)---------|----------------4p-2---------------|
A||------------4--(4)---------|------------2--------2-------------|
G||*--------4-----------------|------2---2---2--------2-----------|
D||*-----4--------------------|----2---2----------------2---------|
A||---2-----------(2)---------|--0--------------------------------|
D||---------------------------|-----------------------------------|


  E  E  E  E    E   Q    E     S  S S S S  S S S S S S  S S S S  S    
----------------------------|--2p-0---0-----------------------------||
-----------0h---2-----------|-------4---2p-0---0--------------------||
--------0-------------------|----------------0---0-----------------*||
-----0----------------------|----------------------4-2p-0---0------*||
----------------------------|-----------------------------4---2p-0--||
--5------------(5)----------|--4------------------------------------||


  E  E  E  E  E  E  E    E.        E   E  E  E   Q     S  S  E   
-----------------------------||------------------------2h-4p-2--|
-----------0-----------3g5---||---(5)---------------------------|
--------0-----------0--------||*----------2---------------------|
-----0-----------2-----------||*-------4------------------------|
--------------0--------------||----2---------2--(2)-------------|
--2--------------------------||---------------------------------|


   E   E  E  E   Q     S S  S  S    E  E  E  E   E   S  S E   E   
--(2)----------------------------|-------------------------------|
-------------0--(0)----5-4p-2p-0-|--2-----------(0)--2h-4-5s--7--|
----------0----------------------|--------0----------------------|
-------4-------------------------|-----0-------------------------|
---0-----------------------------|-------------------------------|
---------------------------------|--5--------5-------------------|


  E  E  E  E  E  E  E  E       E  E   E   E  E  E   E   E   
---------------------------||---------0-----------------0--|
--0--------0-----------3---||--7-------------5------4------|
--------0-----------0-----*||------------------------------|
-----0-----------2--------*||-----0--(0)--0-----2--(2)-----|
--------------0------------||----------------0-------------|
--4------------------------||--4---------------------------|


   E   E  E  E   Q     S  S  E      E   E  E  E   Q     S S S S  
--(0)------------------7h-9p-7--|--(7)------------------5-4-0-2-|
--------------------------------|-------------------------------|
----------0---------------------|----------9--------------------|
-------0------------------------|-------7-----------------------|
--------------------------------|---0---------0--(0)------------|
---9---------9--(9)-------------|-------------------------------|


                     |--3--| 3 3                                     
  E  E  E  E   Q     S  S  S S S T     E   E   E   E  E  E   E   E   
--0--------------------------0-2---|--(2)------0------0----------0--|
---------------------0h-2h-4-------|-------------------------4------|
--------0--------------------------|--------------------------------|
-----0-----------------------------|-------0--(0)--0-----2--(2)-----|
-----------------------------------|------------------0-------------|
--5--------5--(5)------------------|---4----------------------------|


  E  E  E  E   Q     S  S  E      E   E  E  E   E   E  E    E   
--0------------------7h-9p-7--|--(7)-----------(7)--7--9s--12--|
------------------------------|--------------------------------|
--------0---------------------|----------9---------------------|
-----0------------------------|-------7------------------------|
------------------------------|---0---------0--(0)-------------|
--9--------9--(9)-------------|--------------------------------|


                                                       |-3-| |-3-| |-3-|      
    E   E   E    E    E   E   E   E       E   E  E  E  S S S S S S S S S S S  
--(12)-----11------------------------|-----------------------------0-2-0-0-|
------------9---12--(12)--9--10--12--|--(12)--------7--------0-2-4-------4-|
-------------------------------------|---------------------0---------------|
--------9--(9)-----------------------|-----------7-----0-4-----------------|
-------------------------------------|--------7----------------------------|
----9-----------------9--------------|----7--------------------------------|


                     |--3--|                               |--3--|          
   E   E  E  E   E   S  S  S E  S  S     E   E  E  E   E   S  S  S E  S  S  
--(0)-----------(0)----------0--2p-0-|--(0)-----------(0)----------0--2p-0-|
---------------------0h-2h-4---------|---------------------0h-2h-4---------|
----------0--------------------------|-------------------------------------|
-------0-----------------------------|-------0--2--4-----------------------|
-------------------------------------|-------------------------------------|
---5---------5--(5)------------------|---4------------(4)------------------|


                    |-3-|                                   
  E  E   E  E   E   S S S E  E     E  E  E  E  E  E  E  E   
--0------------(0)--------0--2--|--0--------------------0--|
--------------------0-2-4-------|--------4-----2-----4-----|
------------0--(0)--------------|--------0-----0-----0-----|
-----2h--4----------------------|-----2-----------0--------|
--------------------------------|--0--------0--2-----0-----|
--2-----------------------------|--------------------------|


   E    S   S S S  E   E  E  E  E     E   E   E  E  E  Q    E   
--(0)------------------------------|------------------------5--|
----------------0h-2p--0-----------|---------------------------|
--------------0-----------0--------|---------------------------|
-------(0)h-4----------------4--2--|--2--(4)-------------------|
-----------------------------------|---------------------------|
---0-------------------------------|--0------------------------|


   E   E  E  E   Q     E  E      E   E  E  E   Q     E  E   
--(5)------------------7--4--|--(4)------------------0-----|
-----------------------------|--------------------------0--|
-----------------------------|-----------------------------|
-------2--4--5--(5)----------|-------------4--(4)----------|
-----------------------------|-------0--7------------------|
---2-------------------------|---0-------------------------|


   E   E  E  E   Q     S  S S S    E  E  E  E  S  S E  E  E   
--------------------------------|-------------------------5--|
--(0)-------------------------0-|----------------------------|
-------------0--(0)---------0---|--0--4--2--0----------0-----|
-------2--4------------0h-4-----|--------------0h-2-4--------|
--------------------------------|----------------------------|
---2----------------------------|--0-------------------------|


   E   E  E  E   Q     E  E     S  S  S S S S S S E  E   E  E   
--(5)------------------7--5--|--4h-5p-4-0----------------------|
-----------------------------|------------------0--------------|
-----------------------------|----------------0---0---------0--|
-------2--4--5--(5)----------|------------0-4--------4p--0-----|
-----------------------------|---------------------------------|
---2-------------------------|--0-----------------0------------|


                     |-3-|                                   
   E   E  E  E   E   S S S E  E     E  E  E  E  E  E  E  E   
---------------------------0--2--|--0-----------------------|
---------------------0-2-4-------|-----4--2--0-----0--2--5--|
--(0)-----------(0)--------------|--------------0-----------|
-------2--4--5--(5)--------------|--------------------------|
---------------------------------|--0-----------------------|
---2-----------------------------|--------------------------|


   E   S S  S  S S S  E   E  Q       S  S S S S  S S S S  S S S  S  S S S  
-------------------2-(2)----------|---------------------------------------|
--(5)------(5)-2---2-(2)----------|---------------------------------------|
------------2------2-(2)-----2----|---------0-2p-0---0--------------------|
---------4-------4-----------4----|--0h-2-4--------4---2p-0---0-----------|
-------2------------------2-------|-------------------------4----2p-0-----|
---2------------------2-----------|--0--------------------------(0)---4-2-|


   E   S S S S S S  E   E  Q       S  S S  S   S  S S  S  S S  S S S S S  S  
-----------------2-(2)----------|-------------------9------------0---0------|
-------------2---2-(2)----------|----------------10---12-10-9-/7---4---2p-0-|
-----------2-----2-(2)-----2----|-------7h-9-/11----------------------------|
---------4-----4-----------4----|--7h-9-------------------------------------|
-------2----------------2-------|-------------------------------------------|
--(2)---------------2-----------|--0----------------------------------------|


                                |-3-|    |-3-|    |-3-|             
  E  S S S S S E  E  E  Q       S S S E  S S S E  S S S E  S S S S  
---------------2--2----------|------0--------0--------0--------0---|
-----------2---2--2----------|----0--------0--------0--------0-----|
---------2-----2--2-----2----|-----------------------------4-----7-|
-------4-----4----------4----|--------4--------5--------7----------|
-----2---------------2-------|-------------------------------------|
--2---------------2----------|--0--------0--------0----------------|


   E   S S S S S S  E   E  Q       S S S S S S S S S S S S S S S S  
-----------------2-(2)----------|----------------------------------|
--(5)--------2---2-(2)----------|------------------------0---------|
--(7)------2-----2-(2)-----2----|--------0-2-0---0-4-2-0-----------|
---------4-----4-----------4----|--0-2-4-------4---------------0-2-|
-------2----------------2-------|--0-----------------------2-4-----|
---2----------------2-----------|--------------------------5-------|


  S S S S S S S S Q.     E      E   E  E  E  E  E  E  E   
------------0-2-4-2------5--|--(5)-----------------7-----|
------0-2-4-------2------5--|--(5)-----------------7-----|
----0-------------0------4--|---x---------4--------------|
--4-------------------------|----------2-----------------|
--0---------------0---------|-------2-----------2-----0--|
----------------------------|---2------------2-----------|


  S  S  S  S E  E  E  E  E  E      E   E  E  E  E  E  E  E   
--4h-5p-4p-0----------------5--|--(5)-----------------2-----|
-------------0--------------5--|--(5)-----------------4-----|
----------------0-----------4--|--(4)--------4--------------|
-------------------4--0--------|----------2-----------------|
-------------------------0-----|-------2-----------2-----0--|
--0----------------------------|---2------------2-----------|


  E  E  E  E  E  E   E   E      E   E  E  E  E  E  Q     
--4-----------------(4)--5--|--(5)-----------------7----|
--4-----------------(4)--5--|--(5)-----------------7----|
--2-----------------(2)--4--|--(4)--------4-------------|
--------0--------0----------|----------2----------------|
-----0--------0------0------|-------2-----------2-------|
--0--------0----------------|---2------------2----------|


                           |--3--|                                  
   E  E  E  E  S S S S S S T  T  T E     E  E  E  E   E   E  E  E   
--11--7-----0----0---0---0------------|-------------------2--4--0--|
---------9-----4---2---0-----------0--|--2-----4--5--(5)--2--------|
--------------------------------------|--2-----2--2--(2)--2--------|
---------------------------0h-2h-4----|--------4-------------------|
--------------------------------------|-----2----------------------|
---0----------------------------------|--2------------2------------|


  E   E  S S S S E  E  S S S S    E  E  S S S S Q.     E.   
--2---0----0---0----0----------|-----------------------5---|
--5p-----4---2---0-------0-----|---------------------------|
--4--------------------0-----0-|-----0----2---0------------|
---------------------------4---|--2-----4---2---0----------|
--0----------------------------|--0------------------------|
-------------------------------|---------------------------|


   E   E  E  E   Q     E  E      E   E  E  E   Q     E  E   
--(5)------------------7--4--|--(4)------------------0-----|
-----------------------------|--------------------------0--|
-----------------------------|-----------------------------|
-------2--4--5--(5)----------|-------------4--(4)----------|
-----------------------------|-------0--7------------------|
---2-------------------------|---0-------------------------|


   E   E  E  E   Q     S  S S S    E  E  E  E  S  S E  E  E   
--------------------------------|-------------------------5--|
--(0)-------------------------0-|----------------------------|
-------------0--(0)---------0---|--0-------------------------|
-------2--4------------0h-4-----|-----4--2--0----------0-----|
--------------------------------|--------------0h-2-4--------|
---2----------------------------|--0-------------------------|


  E  E  E  E   Q     E  E     S  S  S S S S S S E  E   E  E   
---------------------7--5--|--4h-5p-4-0----------------------|
---------------------------|------------------0--------------|
---------------------------|----------------0---0---------0--|
-----2--4--5--(5)----------|------------0-4--------4p--0-----|
---------------------------|---------------------------------|
--2------------------------|--0-----------------0------------|


                     |-3-|                                   
   E   E  E  E   E   S S S E  E     E  E  E  E  E  E  E  E   
---------------------------0--2--|--0--------------------0--|
---------------------0-2-4-------|--------4-----2-----4-----|
--(0)----------------------------|--------0-----0-----0-----|
-------2--4--5--(5)--------------|-----2-----------0--------|
---------------------------------|--0--------0--2-----0-----|
---2-----------------------------|--------------------------|


   E   S  S S S  E   E  E  E  E     E   S  S  Q.        E  E   Q.        
--(0)----------------------------|-------------------|-----------------||
--------------0h-2p--0-----------|------------5------|-----------------||
------------0-----------0--------|-------------------|-----------------||
-------0h-4----------------4--2--|--2h--4-(4)--------|--2--4--(4)------||
---------------------------------|-------------------|-----------------||
---0-----------------------------|--0----------------|--0--------------||




Duration Legend
---------------
W - whole
H - half
Q - quarter
E - 8th
S - 16th
T - 32nd
X - 64th
. - note dotted
|-n-|  - n-tuplets


Tablature Legend
----------------
L - tied note
x - dead note
g - grace note
(n) - ghost note
> - accentuded note
NH - natural harmonic
AH - artificial harmonic
TH - tapped harmonic
SH - semi harmonic
PH - pitch harmonic
h - hammer on
p - pull off
b - bend
br - bendRelease
pb - preBend
pbr - preBendRelease
brb - bendReleaseBend
\n/ - tremolo bar dip
\n - tremolo bar dive
-/n - tremolo bar Release up
/n\ - tremolo bar inverted dip
/n - tremolo bar return
-\n - tremolo bar Release down
S - shift slide
s - legato slide
/ -  slide into from below or out of upwards
\ -  slide into from above or out of downwards
~ - vibrato
W - wide vibrato
tr - trill
TP - tremolo picking
T - tapping
S - slap
P - pop
< - fade in
^ - brush up
v - brush down
Добавлено: 29.10.2013
Другие материалы по этой песне:
  • Аккорды и текст

Страница создана 29.10.2013
http://primanota.ru/ulli-bogershausen/secret-story-chords.htm
Привет, Гость.
Предлагаем пройти революционный курс по гитаре.
Подарок от PrimaNota.Ru, забирай!