PrimaNota.ru - самый крупный в мире бесплатный архив песенных текстов, аккордов, табулатур и нот


Ulli Bogershausen - Hit The Road Jack - таба, видео

Регистрация Запомнить меня
Войти через:  Facebook Google Twitter Vk Yandex Mail.ru

Ulli Bogershausen - Hit The Road Jack - таба, видео

Печатать
Просмотров: 211
Hit the Road, Jack
Ulli Bögershausen
http://www.youtube.com/watch?v=iG7GVZbxTuA


 |   |   |   |    |   |   |   |    |   |   |   |    |   |   |   |    
|------------0---|----------------|----------------|0---0---5---5---|
|--------------1h|3---------------|1-1-3---3---1---|1-------5-------|
|----------------|--------2-----2-|2---------------|----------------|
|----------------|----------------|----------------|----------------|
|----------------|0---------------|----------------|0-------3-------|
|----------------|--------3-------|1-------0-------|----------------|
 
 |   |   |   |    |   |    |   |   |   |    |   |   |   |    |   |   |   |    
|8---8-----------|----0---|----------------|----------------|----------------|
|8-------10------|------1h|3---------------|1-1-3---3-1-----|----------------|
|8-------9-------|--------|--------2-----2-|------------2p0-|2---------------|
|----------------|--------|----------------|----------------|2---------------|
|8---------------|--------|0---------------|----------------|0-----0---------|
|--------0-------|--------|--------3-------|1-------0-------|--------3-----3-|
 
 |   |   |   |    |   |   |   |    |   |   |   |    |   |   |   |    
|----------------|----------------|------------0---|----------------|
|----------------|----------------|--------------1h|3---------------|
|----2-------1---|----------------|----2---1-------|--------2-----2-|
|------3-------2-|----------------|------3-2-------|----------------|
|----------------|0-----0---------|----------------|0---0-----------|
|1-1-----0-0-----|--------3-----3-|1-1-----0-------|--------3---3---|
 
 |   |   |   |    |   |   |   |    |   |   |   |    |   |   |   |    
|----------------|0---0---5---5---|8---8---8---5---|0---------------|
|1-1-3---3---1---|1-------5-------|8---------8---5-|----------------|
|2---------------|----------------|8---------------|--------2-----2-|
|----------------|----------------|----------------|----------------|
|----------------|0---0---3---3---|8---8-----------|0---0-----------|
|1---1---0---0---|----------------|--------0-------|--------3---3---|
 
 |   |   |   |    |   |   |   |    |   |   |   |    |   |   |   |    
|----------------|----------------|5-5---8-----0---|----------------|
|1-1-3---3-1-----|----------------|5-5---8-------1h|3---------------|
|------------2p0-|2---------------|----------------|--------2-----2-|
|----------------|2---------------|----------------|----------------|
|----------------|0-----0---------|3---------------|0---0-----------|
|1-------0-------|--------3-----3-|------8---------|--------3---3---|
 
 |   |   |   |    |   |   |   |    |   |   |   |    |   |   |   |    
|----------------|0---0---5---5---|8---8---8---5---|0---------------|
|1-1-3---3---1---|1-------5-------|8---------8---5-|----------------|
|2---------------|----------------|8---------------|--------2-----2-|
|----------------|----------------|----------------|----------------|
|----------------|0---0---3---3---|8---8-----------|0---0-----------|
|1---1---0---0---|----------------|--------0-------|--------3---3---|
 
 |   |   |   |    |   |   |   |    |   |   |   |    |   |   |   |    
|----------------|----------------|----------3/5-3/|5-0-------------|
|1-1-3---3-1-----|----------------|----------------|----4-3-1---1-2-|
|------------2p0-|2---------------|----------------|----------2-----|
|----------------|2---------------|----------------|----------------|
|----------------|0---0-0---------|----------------|0---0-----------|
|1-------0-------|--------3---3---|1---1---0---0---|--------3---3---|
 
 |   |   |   |    |   |   |   |    |   |   |   |    |   |   |   |    
|------0---------|0---------------|----------------|----------0-----|
|3---4---------3-|----3---1-------|1---------------|----1---3-------|
|--2-------------|------------2-0-|--2-0---------0-|2---------------|
|----------------|----------------|------2---------|----------------|
|----------------|0---0-----------|----------------|0---0-----------|
|1---1---0---0---|--------3---3---|1---1---0---0---|--------3---3---|
 
 |   |   |   |    |   |   |   |    |   |   |   |    1:12|   |   |    
|5-----8---------|0---0---0-------|------------0---|----------------|
|5-----8-------3-|--3---3---------|--------------1h|3---------------|
|----------------|----------2---2-|----------------|--------2-----2-|
|----------------|----------------|----------------|----------------|
|3-----8---------|0---0-----------|----------------|0---0-----------|
|------------0---|--------3---3---|1---1---0---0---|--------3---3---|
 
 |   |   |   |    |   |   |   |    |   |   |   |    |   |   |   |    
|----------------|0---0---5---5---|8---8---8---5---|0---------------|
|1-1-3---3---1---|1-------5-------|8---------8---5-|----------------|
|2---------------|----------------|8---------------|--------2-----2-|
|----------------|----------------|----------------|----------------|
|----------------|0---0---3---3---|8---8-----------|0---0-----------|
|1---1---0---0---|----------------|--------0-------|--------3---3---|
 
 |   |   |   |    |   |   |   |    |   |   |   |    |   |   |   |    
|----------------|----------------|----------------|----------------|
|1-1-3---3-1-----|----------------|----------------|----0---0-------|
|------------2p0-|2---------------|----------------|--2---2-------2-|
|----------------|2---------------|----------------|----------------|
|----------------|0---0-0---------|----------------|0---0-----------|
|1-------0-------|--------3---3---|1---1---0---0---|--------3---3---|
 
 |   |   |   |    |   |   |   |    |   |   |   |    |   |   |   |    
|----------0-----|----------------|--0-------0-----|----------------|
|0---0-----------|----0---0-------|1-0---0---0-----|----0---0-------|
|--2-----------2-|--2---2-------2-|2-----1---------|--2---2-------2-|
|----------------|----------------|----------------|----------------|
|----------------|0---0-----------|----------------|0---0-----------|
|1---1---0---0---|--------3---3---|1---1---0---0---|--------3---3---|
 
 |   |   |   |    |   |   |   |    |   |   |   |    
|----------0-----|----------------|----------------|
|0---0-----------|----0---0-------|0---------------|
|--2-----------2-|--2---2-------2-|0-1---2---------|
|----------------|--------------2-|--2---2---------|
|----------------|0---0-----------|------0---------|
|1---1---0---0---|--------3---3---|1---0-----------|
 

FM
Добавлено: 23.05.2012
Другие материалы по этой песне:
  • Аккорды и текст

Страница создана 23.05.2012
http://primanota.ru/ulli-bogershausen/hit-the-road-jack-chords.htm
Привет, Гость.
Предлагаем пройти революционный курс по гитаре.
Подарок от PrimaNota.Ru, забирай!