PrimaNota.ru - самый крупный в мире бесплатный архив песенных текстов, аккордов, табулатур и нот


Úlfur Úlfur - Ró - таба, видео

Регистрация Запомнить меня
Войти через:  Facebook Google Twitter Vk Yandex Mail.ru

Úlfur Úlfur - Ró - таба, видео

Печатать
Просмотров: 65
-------------------------------------------------------------------------------
                                Ró - Úlfur úlfur
-------------------------------------------------------------------------------
Tabbed by: Tómas Torrini
E-mail: TomasTorrini@hotmail.com

Tuning: normal


í gegnum allt lagið / throughout the whole song

e|-------5h6----5------0h1----5-------------------------0h1----5--------|
B|-------------------------------5------3p2h3----2----------------5-----|
G|----------------------------------------------------------------------|
D|-------5------3------0--------------------------------0---------------|
A|-------------------------------3--------------------------------3-----|
E|--------------------------------------3--------1----------------------|


Добавлено: 14.06.2016
Другие материалы по этой песне:
  • Аккорды и текст

Страница создана 14.06.2016
http://primanota.ru/ulfur-ulfur/ro-chords.htm
Привет, Гость.
Предлагаем пройти революционный курс по гитаре.
Подарок от PrimaNota.Ru, забирай!