PrimaNota.ru - самый крупный в мире бесплатный архив песенных текстов, аккордов, табулатур и нот


Ulf Dageby - Gnistrande Snö - аккорды и текст, видео

Регистрация Запомнить меня
Войти через:  Facebook Google Twitter Vk Yandex Mail.ru

Ulf Dageby - Gnistrande Snö - аккорды и текст, видео

Печатать
Просмотров: 33
Gnistrande Snö
Ulf Dageby
Ulf Dageby - Gnistrande snö


As made famous from the "They Call Us Misfits" (Dom kallar oss mods) trilogy.

During the riff play the verse chords. During the outro, just play G#.


Riff:

e-|------------------------------------|-------------------------------|
B-|------------------------------------|-------------------------------|
G-|------------------------------------|-------------------------------|
D-|-------3-----4---3------------------|-------------------------------|
A-|-3-4-6-----6---------6---4-1---/3---|-1-3-1-3---1--4~~~------1/3~~~-|
E-|------------------------------------|---------------------4---------|


Outro riff:

e-|--------------------|------------------|----------------------|
B-|--------------------|------------------|----------------------|
G-|--------------------|------------------|----------------------|
D-|--------------------|------------------|----------------------|
A-|-3h4--3-------------|-3-h4-/6----4h3---|-3h4--3---------------|
E-|---------4---2h4~~~-|------------------|---------4---4h2p4~~~-|

e-|------------------------|------------------------|-------------|-------------------|
B-|------------------------|------------------------|-------------|-------------------|
G-|------------------------|------------------------|-------------|-------------------|
D-|-----------------6-6~~~-|------------------------|-------------|-------------------|
A-|-3h4--6----6/8----------|-3h4--3-----------------|-3h4--4/6~~~-|-3h4--3------------|
E-|------------------------|---------4---4p2h4-4~~~-|-------------|---------4---4p2h4-|


Intro: G# (for 12 measures)


G#                 F#     C#    G#
Gnistrande snö och himlen är så nära
G#                 C#       G#
Följ mig på livets stig min kära


(Riff)


G#                F#       C#        G#
Gnistrande snö är kall och grann min kära
G#                 C#          G#
Kom ta mig dit där himmelen är nära


(Riff)


G#                 F#     C#    G#
Gnistrande snö och himlen är så nära
G#                 C#       G# 
Följ mig på livets stig min kära


(Outro riff)
Добавлено: 28.12.2015
Другие материалы по этой песне:
  • Аккорды и текст

Страница создана 28.12.2015
http://primanota.ru/ulf-dageby/gnistrande-sno-chords.htm
Привет, Гость.
Предлагаем пройти революционный курс по гитаре.
Подарок от PrimaNota.Ru, забирай!