PrimaNota.ru - самый крупный в мире бесплатный архив песенных текстов, аккордов, табулатур и нот


Uk Subs - I Couldnt Be You - таба, видео

Регистрация Запомнить меня
Войти через:  Facebook Google Twitter Vk Yandex Mail.ru

Uk Subs - I Couldnt Be You - таба, видео

Печатать
Просмотров: 126
UK Subs - I couldn't be you 
by: Frederick Pz from Barranquilla/Colombia
Email: buzzersounds@gmail.com

Intro + armonica:
e|----------------------------------|
B|-3-3-3-3---3-3---3-3-3-3---3-3----|
G|-4-4-4-4---4-4---4-4-4-4---4-4----|
G|----------------------------------|
D|----------------------------------|
A|----------------------------------|
E|----------------------------------|


e|----------------------------------|
B|----------------------------------|
G|----------------------------------|
G|----------------------------------|
D|---7-7----------------------------|
A|---5-5---7-7---(x4)---------------|
E|---------5-5----------------------|

verse:
e|----------------------------------|
B|---------------------3-3-(intro)--|
G|---------------------4-4----------|
G|----------------------------------|
D|---7-7----------------------------|
A|---5-5---7-7----------------------|
E|---------5-5----------------------|
( D - A very fast or palm mute, next to intro)


bridge:

I said that I'm too young...
e|----------------------------------|
B|----------------------------------|
G|----------------------------------|
G|----------------------------------|
D|---7---9---11---9-----------------|
A|---5---7---9----7-----------------|
E|----------------------------------|

e|----------------------------------|
B|----------------------------------|
G|----------------------------------|
G|----------------------------------|
D|---7-7--9-9--11-11--9-9-----------|
A|---5-5--7-7--9--9---7-7-----------|
E|----------------------------------|


e|----------------------------------|
B|----------------------------------|
G|----------------------------------|
G|----------------------------------|
D|---7---9---11---9-----------------|
A|---5---7---9----7-----------------|
E|----------------------------------|


e|-------------------------------------|
B|-------------------------------------|
G|-------------------------------------|
G|-------------------------------------|
D|---7-7--------------7-7-7-7-7-7-7-7--|
A|---5-5--7-7-(x4)----5-5-5-5-5-5-5-5--|
E|--------5-5--------------------------|


e|------------------------------------|
B|------------------------------------|
G|------------------------------------|
G|---7------6------5------------------|
D|---7-7----6-6----5-5-------2-2------|
A|---5------4------3---------2-2------|
E|------------------------------------
Добавлено: 05.10.2013
Другие материалы по этой песне:
  • Аккорды и текст

Страница создана 05.10.2013
http://primanota.ru/uk-subs/i-couldnt-be-you-chords.htm
Привет, Гость.
Предлагаем пройти революционный курс по гитаре.
Подарок от PrimaNota.Ru, забирай!