PrimaNota.ru - самый крупный в мире бесплатный архив песенных текстов, аккордов, табулатур и нот


Uk Decay - For My Country - таба, видео

Регистрация Запомнить меня
Войти через:  Facebook Google Twitter Vk Yandex Mail.ru

Uk Decay - For My Country - таба, видео

Печатать
Просмотров: 156
Авторы музыки: Steven Paul Abbott, Stephen Andrew Teague

-------------------------------------------------------------------------------
                        FOR MY COUNTRY - UK Decay
-------------------------------------------------------------------------------
Tabbed by: John Oakfield
Email: siguesiguesputnik@hotmail.co.uk
www.ukdecay.co.uk

this is my first proper tab so be kind. i'm almost certain this is perfect.
great song, great band. i'll put up more of their stuff soon.

Tuning: EADGBe

Intro:
(just vocals)
For - My - Coun - try!

Verse 1: (timings hard to tell but it's something like this)

e|--------------------------------------------------------------|
B|--------------------------------------------------------------|
G|----------------7-7-7-9---5---5---------------9---9-9---9---9-|
D|5-5-5-5-5-5-5-5-7-7-7-9---5---5-5---5---5-5-5-9---9-9---9---9-|
A|5-5-5-5-5-5-5-5-5-5-5-7---7---7-5---5---5-5-5-7---7-7---7---7-|
E|3-3-3-3-3-3-3-3-----------------3---3---3-3-3-----------------|
a blaze in........death is their................oh the honour so great
the safe or esteem, to relive...................spitting tales of hate

Chorus:

e|------------------------------------------------|
B|------------------------------------------------|
G|1111111111117-7-7-7-----9-9-9-9-9-9-6-6-6-6-----|
D|1111111111117-7-7-7-----9-9-9-9-9-9-6-6-6-6-----|
A|9-9-9-9-9-9-5-5-5-5-----7-7-7-7-7-7-4-4-4-4-----|
E|------------------------------------------------|
smashin and.. escape..    count up... we go back again
for the...    i don't ask.her maj...  my honour to die

e|-----------------------------------------|
B|-----------------------------------------|
G|11---11---11---11---6-6-6-6-6-6-11111111-|
D|11---11---11---11---6-6-6-6-6-6-11111111-|
A|9----9----9----9----4-4-4-4-4-4-9-9-9-9--|
E|-----------------------------------------|
  FOR  MY   COUN-TRY!
  FOR  MY   COUN-TRY!

e|------------------------|
B|------------------------|
G|--9-9---7-7---5-5-5-5-5-|
D|--9-9---7-7---5-5-5-5-5-|
A|--7-7---5-5---3-3-3-3-3-|
E|------------------------|

Verse 2:

e|--------------------------------------------------------------|
B|--------------------------------------------------------------|
G|----------------7-7-7-9---5---5---------------9---9-9---9---9-|
D|5-5-5-5-5-5-5-5-7-7-7-9---5---5-5---5---5-5-5-9---9-9---9---9-|
A|5-5-5-5-5-5-5-5-5-5-5-7---7---7-5---5---5-5-5-7---7-7---7---7-|
E|3-3-3-3-3-3-3-3-----------------3---3---3-3-3-----------------|
a blaze in........their death is................oh for the regal return
to swin in the... to see the blood..............to see the home fires burn

Chorus:

e|------------------------------------------------|
B|------------------------------------------------|
G|1111111111117-7-7-7-----9-9-9-9-9-9-6-6-6-6-----|
D|1111111111117-7-7-7-----9-9-9-9-9-9-6-6-6-6-----|
A|9-9-9-9-9-9-5-5-5-5-----7-7-7-7-7-7-4-4-4-4-----|
E|------------------------------------------------|
smashin and.. escape..    count up... we go back again
for the...    i don't...  her maj...  my honour to die

e|-----------------------------------------|
B|-----------------------------------------|
G|11---11---11---11---6-6-6-6-6-6-11111111-|
D|11---11---11---11---6-6-6-6-6-6-11111111-|
A|9----9----9----9----4-4-4-4-4-4-9-9-9-9--|
E|-----------------------------------------|
  FOR  MY   COUN-TRY!
  FOR  MY   COUN-TRY!

Break (do this 4 times)

e|------------------------|
B|------------------------|
G|--9-9---7-7---5-5---5-5-|
D|--9-9---7-7---5-5---5-5-|
A|--7-7---5-5---3-3---3-3-|
E|------------------------|

Ending: (repeat this over and over till the end)

e|------------------------------------------------|
B|------------------------------------------------|
G|7-7-7-7-7-7-3-3-3-3-----------------2-2-2-2-----|
D|7-7-7-7-7-7-3-3-3-3-----2-2-2-2-2-2-2-2-2-2-----|
A|5-5-5-5-5-5-1-1-1-1-----2-2-2-2-2-2-0-0-0-0-----|
E|------------------------0-0-0-0-0-0-------------|

Finish:

e|-------------------|
B|-------------------|
G|2----2----2----2---|
D|2----2----2----2---|
A|0----0----0----0---|
E|-------------------|
  FOR  MY   COUN-TRY!

===============================
For – my - country

A blaze in their eyes
death is their glory
Oh the honour so great
the safe or esteem?
to relive the stories
spitting tales of hate

Smashing and crashing
escape, the terrain
count up the memories
we go back again
for the honour I don't ask why
her majesty's pleasure's my honour to die
for - my - country
for - my - country

A blaze in the fields
their death is my glory
oh, for the regal return
To swim in the blood
To see the blood of champagne
To see the home fires burn

We're smashing and crashing
escape, the terrain
count up the memories
we go back again
for the honour I don't ask why
her majesty's pleasure's my honour to die
for - my - country
for - my - country

garbled voices "under attack", "detonate" and explosions etc

We're smashing and bashing
.the skies, the terrain
count up the memories
we go back again
my sword will never sleep in my hands
until we build Jerusalem in this green and pleasant land
for the honour I don't ask why
his majesty's pleasure's my honour to die
for my country
for my country 

===============================================================================
Добавлено: 05.03.2012
Другие материалы по этой песне:
  • Аккорды и текст

Страница создана 05.03.2012
http://primanota.ru/uk-decay/for-my-country-chords.htm
Привет, Гость.
Предлагаем пройти революционный курс по гитаре.
Подарок от PrimaNota.Ru, забирай!