PrimaNota.ru - самый крупный в мире бесплатный архив песенных текстов, аккордов, табулатур и нот


Ugly Kid Joe - Udertow - аккорды и текст, видео

Регистрация Запомнить меня
Войти через:  Facebook Google Twitter Vk Yandex Mail.ru

Ugly Kid Joe - Udertow - аккорды и текст, видео

Печатать
Просмотров: 120
Уроки эстрадного вокала в Санкт-Петербурге
Udertow
Ugly Kid Joe
Band:UGLY KID JOE
Song:Undertow
Album:Motel California
Track no:9                                             
Catalouge no:GAS0000113RAW

UNDERTOW
Tune guitar down half a step

Intro/Outro

guitar 1
Eb-----0-----------0-------3-----------0-------5-----------5-------0----
Bb-----0-----------0-------3-----------0-------5-----------5-------0----
Gb-----1-----------1-------4-----------1-------6-----------6-------1----
Db-----2-----------2-------5-----------2-------7-----------7-------2----
Ab-----2-----------2-------5-----------2-------7-----------7-------2----
Eb----------------------------------------------------------------------

guitar 2
Eb----------------------------------------------------------------------
Bb----------------------------------------------------------------------
Gb-----4-----------4-------8-----------4-------9-----------9------4-----
Db----------------------------------------------------------------------
Ab----------------------------------------------------------------------
Eb----------------------------------------------------------------------

Bridge into verse 1

Eb, F*, Ab

Verse 1

Eb          F         F*
The pain is gone...
Eb      F               F*
The sun disguised...
Eb        F      F*
The wagon rolls...
Eb      F              F*     G*
Another bottle...

Verse 2

Eb             F       F*
The game moves on, The p...
Eb        F                   F*
Where now d...
Eb     F         F*                  
Answer now, your q...
Eb     F                F*   G
Off to find your...

Chorus

    Eb    F*   Ab
Ohh we
    Eb    F*   Ab
Ohh we
    Eb    F*   Ab
Ohh we.........we ....
    Eb    F*   Ab
Ohh we.........guess ....

Interlude

G*   G               Gb    Eb
Everybody's laughing...

Bridge to Solo

Eb  F*   Ab
Too long today

Tab by Darren O'Neill
E-mail comments,questions or requests to darrenaoneill@hotmail.com
     
Добавлено: 17.09.2013
Вам также может быть интересно:
Другие материалы по этой песне:
  • Аккорды и текст

Страница создана 17.09.2013
http://primanota.ru/ugly-kid-joe/udertow-chords.htm
Привет, Гость.
Предлагаем пройти революционный курс по гитаре.
Подарок от PrimaNota.Ru, забирай!