PrimaNota.ru - самый крупный в мире бесплатный архив песенных текстов, аккордов, табулатур и нот


Ugly Kid Joe - Panhandlin Prince - аккорды и текст, таба, видео

Регистрация Запомнить меня
Войти через:  Facebook Google Twitter Vk Yandex Mail.ru

Ugly Kid Joe - Panhandlin Prince - аккорды и текст, таба, видео

Печатать
Просмотров: 160
Авторы: Whitfield Crane, Klaus Eichstadt

Panhandlin Prince
Ugly Kid Joe
Intro:

It's basically just F slide to and F#

F/F#   Do this lots.

Listen for these next....

B  A     F#    A     B  A  F#


Verse:

Play this riff, and the lead guitar put a widdly solo over the top.

F/F#                A    A    F/F#                B    A
|------------------------------------------------------------------|
|------------------------------------------------------------------|
|------------------------------------------------------------------|
|--3/4-----4---4-----4-5----5----3/4-----4---4-----4-9----7--------|
|--3/4-----4---4-----4-5----5----3/4-----4---4-----4-9----7--------|
|--1/2-2-2-2-2-2-2-2-2-3----3----1/2-2-2-2-2-2-2-2-2-7----5--------|


Then play these before the chorus:   F#    A     B  A  F#  (like you did
After the intro.)

Chorus:

F#   A   B   F#

Then go back to the verse riff.

For the "Yo Mr. Trump..." bit, play from the verse riff.

Then do this.....

|--------------------|
|--------------------|
|--------------------|
|---2--4--2--4--2--4-|   (Very rough rhythm, those are the notes at least!)
|--------------------|
|--------------------|


A   B   F#  And repeat it.


Then do this, (similar to the last bit)

|---------------------------------------|
|---------------------------------------|
|---------------------------------4--2--|
|---2--4--2--4--2--4--2--4--2--4--4--2--|
|---------------------------------------|
|---------------------------------------|


The chords over the solo are  A  B  F#  same as before  (I think).

Then after the ace solo (make sure you do a mass-off divebomb!), play this...

F#  C B  F#

And that's it, just about!   But for this to make any sense, you're gonna
Have to play along with the record.
Добавлено: 29.02.2012
Другие материалы по этой песне:

Страница создана 24.02.2012
http://primanota.ru/ugly-kid-joe/panhandlin-prince-chords.htm
Привет, Гость.
Предлагаем пройти революционный курс по гитаре.
Подарок от PrimaNota.Ru, забирай!