PrimaNota.ru - самый крупный в мире бесплатный архив песенных текстов, аккордов, табулатур и нот


Ugly Kid Joe (harry Chapin) - Jesus Rode A Harley - текст песни, таба, видео

Регистрация Запомнить меня
Войти через:  Facebook Google Twitter Vk Yandex Mail.ru

Ugly Kid Joe (harry Chapin) - Jesus Rode A Harley - текст песни, таба, видео

Печатать
Просмотров: 137
i dont have the best ear, i count on my bass player to help me with that, but here is my best shot at thi one

intro/riff a     (X2)
e--------------------------------------------------------
b--------------------------------------------------------
g----------------------------------------------4--6------
d---6/4----4--4---9----9---9----6----6--6--6---4--6------
a---6/4----4--4---9----9---9----6----6--6--6---2--4------
e---4/2----2--2---7----7---7----4----4--4--4-------------
          pm  pm           pm       pm pm    

e--------------------------------------------------------
b--------------------------------------------------------
g--------------------------------------------------------
d---6\4---4---4---9---9----9----6----6---6--6--8--6--4---
a---6\4---4---4---9---9----9----6----6---6--6--8--6--4---
e---4\2---2---2---7---7----7----4----4---4--4--6--4--2---
         pm  pm            pm        pm  pm 

verse riff   (guitar 1) 
e----------------------------------------------
b----------------------------------------------
g---------------6--6-----x---6/4---------------
d--4------------6--6-----x---6/4-4-------------
a--4---------------------x-------4-------------
e--2-----------------------------2-------------

verse riff  (guitar 2)
e---------]-----
b---------]-----
g---------]-----
d--4------]---4
a--4------]---4
e--2------]---2
    let ring....

chorus riff
  moses used to....
e------------------------------------------
b------------------------------------------
g--------4-4---6-6---4--------------4------
d--6-6---4-4---6-6---4--6---6-6--x--4------
a--6-6---2-2---4-4---2--6---6-6--x--2------
e--4-4------------------4---4-4--x---------

  noah used to.....
e------------------------------------------
b------------------------------------------
g-------4-4---6-6---4------------4---------
d--6-6--4-4---6-6---4---6----6---4---------
a--6-6--2-2---4-4---2---6----6---2---------
e--4-4------------------4----4-------------

marry used to....
e------------------------------------------
b------------------------------------------
g------4-4---6-6--x-------------------4----
d-6-6--4-4---6-6--x---6-----6--6--x---4----
a-6-6--2-2---4-4--x---6-----6--4--x---2----
e-4-4-----------------4-----4--4--x--------

  jesus rode a  har  ley  davidson
e------------------------------------------
d------------------------------------------
g--------4---4--6--6--6----4-----4---------
d-6-6----4---4--6--6--6----4--6--4---------
a-6-6----2---2--4--4--4----2--6--2---------
e-4-4-------------------------4------------


That is  the way i see it, I think it is pretty close.
I have nt had time to tab the solo yet

Добавлено: 27.06.2013
Другие материалы по этой песне:
  • Аккорды и текст

Страница создана 30.03.2012
http://primanota.ru/ugly-kid-joe-harry-chapin/jesus-rode-a-harley-chords.htm
Привет, Гость.
Предлагаем пройти революционный курс по гитаре.
Подарок от PrimaNota.Ru, забирай!