PrimaNota.ru - самый крупный в мире бесплатный архив песенных текстов, аккордов, табулатур и нот


Ufo - Love Lost Love - текст песни, таба, видео

Регистрация Запомнить меня
Войти через:  Facebook Google Twitter Vk Yandex Mail.ru

Ufo - Love Lost Love - текст песни, таба, видео

Печатать
Просмотров: 117
-------------------------------------------------------------------------------
                               Love Lost Love - UFO
-------------------------------------------------------------------------------

Tabbed by: Bryan Graham

Tempo: 110
Timing: 4/4

Tuning: Standard

INTRO:

  Gtr. 1 [Rhy. Fig 1]                                     End Rhy. Fig. 1
e|-----------------|-----------------|-----------------|-----------------|
B|-----------------|-----------------|-----------------|-----------------|
G|-7---7-------7---|-----------------|-7---7-------7---|-----------------|
D|-7---7---5---7---|-7-----7---7--7--|-7---7---5---7---|-7---7-----5--7--|
A|-5---5---5---5---|-7-----7---7--7--|-5---5---5---5---|-7---7-----5--7--|
E|---------3-------|-5-----5---5--5--|---------3-------|-5---5-----3--5--|

  Gtr. 2
e|-----19p17------------------|----------------17------------|
B|-----------20-19~--15-17b---|-17~-----15-17b----17b--17~---|
G|----------------------------|------------------------------|
D|----------------------------|------------------------------|
A|----------------------------|------------------------------|
E|----------------------------|------------------------------|

e|------------15----14--------|------------------------------|
B|-15~--15--------------17-15-|------------------------------|
G|---------16-----------------|-14~-----12p11-12p11----------|
D|----------------------------|----------------------12------|
A|----------------------------|-------------------------12~--|
E|----------------------------|------------------------------|

e|-----15p14-----17--15p14----|------------------------------|
B|-----------15------------15-|------------15-17-17brp15-17~-|
G|----------------------------|-14~----/17-------------------|
D|----------------------------|------------------------------|
A|----------------------------|------------------------------|
E|----------------------------|------------------------------|

e|----------------------------|------------------------------|
B|----------14-15-------------|------------------------------|
G|-------15-------16----------|----------------14------------|
D|----16-------------16-14-12-|-14~---12-14/16----16~--14-12-|
A|----------------------------|------------------------------|
E|----------------------------|------------------------------|


VERSE 1:

  Gtr. 1 [Rhy. Fig. 2]
e|---------------------------|-----------------------------|
B|---------------------------|-----------------------------|
G|-7--7--x-x--x-7--7--x-x--x-|-----------------------------|
D|-7--7--x-x--x-7--7--x-x--x-|-5--5--x-x--x-5--5-----------|
A|-5--5--x-x--x-5--5--x-x--x-|-5--5--x-x--x-5--5--0h2p0--0-|
E|---------------------------|-3--3--x-x--x-3--3--------3--|
 |                           |
 | Gtr. 2                    |
e|---------------------------|
B|---------------------------|
G|-------(1st time only)-----|
D|-12~-----------------------|
A|---------------------------|
E|---------------------------|

  Gtr. 1                                      End Rhy. Fig. 2
e|---------------------------|-------------------------------|
B|---------------------------|-------------------------------|
G|-7--7--x-x--x-7--7--x-x--x-|-------------------------------|
D|-7--7--x-x--x-7--7--x-x--x-|-5--5--x-x--x------------------|
A|-5--5--x-x--x-5--5--x-x--x-|-5--5--x-x--x-5h7p5-5h7p5--5-7-|
E|---------------------------|-3--3--x-x--x------5-----5-----|

Saturday night, we're all on the lookout for some thrills
Try to catch the band's last song
Backstage pass, really showin' out
Feel that's where I belong


BRIDGE:

  Gtr. 1 w/ Rhy. Fig. 1

  Gtr. 2
e|-------------------------|------------------------|
B|-------15-17b--17b--17~--|-----15-17--------------|
G|----14-------------------|-----------14~----12-14-|
D|-------------------------|------------------------|
A|-------------------------|------------------------|
E|-------------------------|------------------------|

e|-------------------------|------------------------------------|
B|-------------------------|------------------------------------|
G|------------14b---14b----|-14~---12-14------------------------|
D|-15br--12----------------|-------------15br-12----------------|
A|-------------------------|---------------------15-14-12-------|
E|-------------------------|------------------------------14-12-|


VERSE 2:

  Gtr. 1 w/ Rhy. Fig. 2

  Gtr. 2
e|----------------------------|
B|----------------------------|
G|------(1st time only)-------|
D|----------------------------|
A|----------------------------|
E|-10~------------------------|

Sitting down with the all the big stars at the bar
I really have a rock vocation
Monopede mania, schizophrenia
Rise to any situation


CHORUS:

  Gtr. 1 [Rhy. Fig. 3]                                    End Rhy. Fig. 3
e|-----------------|-----------------|-----------------|-----------------|
B|-----------------|-----------------|-----------------|-----------------|
G|-7--7------------|-----------------|-7--7------------|-----------------|
D|-7--7----7--7----|-5--5----5--5----|-7--7----7--7----|-5--5----5--5--7-|
A|-5--5----7--7----|-5--5----5--5----|-5--5----7--7----|-5--5----5--5--7-|
E|---------5--5----|-3--3----3--3----|---------5--5----|-3--3----3--3--5-|

Love oh lost love
Where will you go
When the show is over
Nobody wants to know


BRIDGE:

  Gtr. 1 w/ Rhy Fig. 1

We need to feel something that's real
Cause you're losing from the start
So be careful with your heart


GUITAR SOLO:

  Gtr. 1 w/ Rhy. Fig. 2

  Gtr. 2
e|----------------------------------|---------------------------------|
B|-9p8-----9~--9p8------------9-----|-10b-----8-10--------------------|
G|-----10----------10b---7~-----10--|---------------9br--7---7-9-7~---|
D|----------------------------------|----------------------9----------|
A|----------------------------------|---------------------------------|
E|----------------------------------|---------------------------------|

e|----------------------------------|-------10---10------------------------------|
B|----------------------------------|-----10--12b---13p10------------------------|
G|-------------------7-9--9brp7-9-7-|-/11b---------------12brp10-12-10b----------|
D|---------------7-9----------------|----------------------------------12-10-12~-|
A|-8-9----8-9-11--------------------|--------------------------------------------|
E|-----11---------------------------|--------------------------------------------|

e|----------10---10---10----10-10-------------|----10-12br-10------------------------------|
B|---8----10--13b--------13b------13-10-10h12-|-12-----------13-12-10----------------10-12-|
G|-----12b---------12b------------------------|-----------------------12-10-11--10-11------|
D|--------------------------------------------|-------------------------------12-----------|
A|--------------------------------------------|--------------------------------------------|
E|--------------------------------------------|--------------------------------------------|

e|-10-12-13-10-17br---15-17-15---------------|---------------------------------------------|
B|-----------------------------17br-15-17-15-|----------------15-17-18-17-15-19br---15-17--|
G|-------------------------------------------|-15-16----15-16------------------------------|
D|-------------------------------------------|-------17------------------------------------|
A|-------------------------------------------|---------------------------------------------|
E|-------------------------------------------|---------------------------------------------|

BRIDGE:

  Gtr. 1 w/ Rhy. Fig. 1

  Gtr. 2
e|------------------------|
B|-15~--------------------|
G|-----(1st time only)----|
D|------------------------|
A|------------------------|
E|------------------------|


VERSE 3:

  Gtr. 1 w/ Rhy. Fig. 2

Partners in the next bed and they're dancing cheek to cheek
Can't understand their highbrow conversation
Yes, you're pretty, who needs a pretty face
With a hot lip reputation

[Repeat Chorus]

[Repeat Intro]

OUTRO:

   Gtr. 1
e|---------------------------|---------------------------------|
B|---------------------------|---------------------------------|
G|-------------7----7--------|-5----5--------------------------|
D|-8----8------7----7--------|-5----5--------8-----------------|
A|-8----8------5----5--------|-3----3--------8-----------------|
e|-6----6--------------------|---------------6-----------------|
 |                           |                                 |
 | Gtr. 2                    |                                 |
e|---------------------------|---------------------------------|
B|----------18---------------|---------------------------------|
G|-17b--17b----17b--19-17----|-17~--19-17----------------------|
D|------------------------19-|------------19-17-15h17p15-------|
A|---------------------------|---------------------------17-15-|
E|---------------------------|---------------------------------|

   Gtr. 1
e|---------------------------|
B|---------------------------|
G|-7-------------------------|
D|-7-------------------------|
A|-5-------------------------|
e|---------------------------|
 |                           |
 | Gtr. 2                    |
e|---------------------------|
B|---------------------------|
G|-17b~----------------------|
D|---------------------------|
A|---------------------------|
E|---------------------------|


That's all folks!


**************************
Key

b  = Bend
br = Bend and release
h  = Hammer on
p  = Pull off
/  = Slide up
\  = Slide down
~  = Vibrato
x  = Mute Note
Добавлено: 15.11.2015
Другие материалы по этой песне:
  • Аккорды и текст

Страница создана 05.04.2012
http://primanota.ru/ufo/love-lost-love-chords.htm
Привет, Гость.
Предлагаем пройти революционный курс по гитаре.
Подарок от PrimaNota.Ru, забирай!