PrimaNota.ru - самый крупный в мире бесплатный архив песенных текстов, аккордов, табулатур и нот


Ub40 - Slow Down - бас-таба, видео

Регистрация Запомнить меня
Войти через:  Facebook Google Twitter Vk Yandex Mail.ru

Ub40 - Slow Down - бас-таба, видео

Печатать
Просмотров: 112
Marvin Priest provides Lead Vocals on Slow Down
taken from UB40s TWENTYFOURSEVEN.

Intro/Chorus#1:                               (*)bar again 2nd time around!
G::----:--57:----:--57:----:--57:----:--57:----:----:
D::----:-7--:----:-7--:----:-7--:----:-7--:----:----:
A::5535:----:5535:----:5535:----:5535:----:--5-:----:
E::----:----:----:----:----:----:----:----:33-3:1-1-:
               (*)             ::Girl I'm Afraid to lose::
G:----:--57:----:----:----:--57::
D:----:-7--:----:----:----:-7--::
A:5535:----:--5-:----:5535:----::
E:----:----:33-3:111-:----:----::
Verse#1: 
G:----:----:----:----:----:----:----:--57\:----:----:----:----:
D:----:----:----:----:----:----:----:-7---:----:----:----:----:
A:5535:----:5535:----:5535:----:5535:-----:--5-:----:5535:----:
E:----:----:----:----:----:----:----:-----:33-3:1-1-:----:----:
                       ::Now i Remember when you told mi::
G:------:----:----:--57::----:--57:----:--57::
D:------:----:----:-7--::----:-7--:----:-7--::
A:----5-:--3-:5535:----::5535:----:5535:----::
E:33-3-3:11-1:----:----::----:----:----:----::
 :Slow Down:
G:-----:----:----:--57:-----:----:----:--57:
D:-----:----:----:-7--:-----:----:----:-7--:
A:-5-5-:--3-:5535:----:-5-5-:----:5535:----:
E:3-3-3:11--:----:----:3-3-3:111-:----:----:
Verse#2:
G:----:--57::----:--57::
D:----:-7--::----:-7--::
A:-535:----::5535:----::
E:3---:----::----:----::
Their are so many variations to type in order but below are a few:
G:----:-----:----:--5/7~:  G:----:----:----:--57/\: 
D:----:-----:----:-7----:  D:----:----:----:7-----: 
A:---5:-3-3-:5535:------:  A:--5-:--3-:5535:------: 
E:333-:1-1-1:----:------:  E:33--:11--:----:------:
(Before a small stretch of bars with no Bass!)
G:----:--577:----:-----:------:--57:
D:----:-7---:----:-----:------:-7--:
A:5535:-----:--5-:-3-3-:555535:----:
E:----:-----:33--:1-1-1:------:----:

There are more but typing this manually is mundane!
The Bass is pretty much accurate,It's tabbed as well as i can
do it!As always listen to the recording it makes sense.
(oh and this Bass line can also be used for NEW YORK SIDEWALK
from UB40's DUB SESSIONS album).
Добавлено: 23.10.2013
Другие материалы по этой песне:
  • Аккорды и текст

Страница создана 23.10.2013
http://primanota.ru/ub40/slow-down-chords.htm
Привет, Гость.
Предлагаем пройти революционный курс по гитаре.
Подарок от PrimaNota.Ru, забирай!