PrimaNota.ru - самый крупный в мире бесплатный архив песенных текстов, аккордов, табулатур и нот


Ub40 - Since I Met You Lady - бас-таба, видео

Регистрация Запомнить меня
Войти через:  Facebook Google Twitter Vk Yandex Mail.ru

Ub40 - Since I Met You Lady - бас-таба, видео

Печатать
Просмотров: 106
Уроки эстрадного вокала в Санкт-Петербурге
Here is the Bass Tab & Chord for
Since I Met You Lady(feat:Lady Saw),
The A of a double A side(the AA being Sparkle Of My Eye)
& they both appear on UB40'S 2001 Cover Up album.

I will Tab the main Bass Line in order!
(then it's a case of repeating/stopping & starting as
according to the track).

  D         G    A    D                   G      
G::--7-:----:----:----:--7-:----:--7-:----:----:----:
D::----:----:--5-:----:----:----:----:----:--5-:----:
A::55--:55--:----:----:55--:55--:55--:55--:----:----:
E::----:----:33--:55--:----:----:----:----:33--:33--:
      A    D                   A         G    A
G:----:----:--7-:----:--7-:----:----:----:----:----:
D:--5-:----:----:----:----:----:--7-:----:--5-:----:
A:----:----:55--:55--:55--:55--:----:----:----:----:
E:33--:55--:----:----:----:----:55--:55--:33--:55--:
 D         A
G:--7-:----:----:----::
D:----:----:--7-:----::
A:55--:55--:----:----::
E:----:----:55--:55--::

A small fill in the Bass towards the end of the track:
G:----:
D:----:
A:5542:
E:----:

The Outro Bass:
  D         A         D         A
G::--7-:----:----:----:--7-:----:----:----::
D::----:----:--7-:----:----:----:--7-:----::
A::55--:----:----:----:55--:----:----:----::
E::----:----:55--:----:----:----:55--:----::

Any Comments/Corrections Welcome.
Добавлено: 11.09.2013
Другие материалы по этой песне:
  • Аккорды и текст

Страница создана 11.09.2013
http://primanota.ru/ub40/since-i-met-you-lady-chords.htm
Привет, Гость.
Предлагаем пройти революционный курс по гитаре.
Подарок от PrimaNota.Ru, забирай!