PrimaNota.ru - самый крупный в мире бесплатный архив песенных текстов, аккордов, табулатур и нот


Ub40 - Holly Holy - текст песни, бас-таба, видео

Регистрация Запомнить меня
Войти через:  Facebook Google Twitter Vk Yandex Mail.ru

Ub40 - Holly Holy - текст песни, бас-таба, видео

Печатать
Просмотров: 109
The second U.K single from UB40's 1998 C.D
Labour Of Love 3:

There's no Bass! 'till the Middle & then after:

Middle:
G:-----:-------:-------:--3--:-----:-------:-------:------:
D:-----:-------:-------:-3--3:-----:-------:-------:---3--:
A:-----:-------:-------:-----:-----:-------:-------:--3--3:
E:1-111:111-111:111-111:1----:1-111:111-111:111-111:11----:

G:-----:-------:-------:------:-----:-------:-------:----------:
D:-----:-------:-------:---3--:-----:-------:-------:----------:
A:-----:-------:-------:--3--3:-----:-------:-------:----------:
E:1-111:111-111:111-111:11----:1-111:111-111:111-111:111-111-11:

Saxophone: 
G:-----:-------:-------:---3--:-----:-------:-------:---3--:
D:-----:-------:-------:--3--3:-----:-------:-------:--3--3:
A:1-111:111-111:111-111:11----:1-111:111-111:111-111:11----:
E:-----:-------:-------:------:-----:-------:-------:------:

Vocals:(repeat 'til break)        (on the last Bar before break)
G::-----:-------:-------:---3--:: G:----:
D::-----:-------:-------:--3--3:: D:----:
A::1-111:111-111:111-111:11----:: A:11--:
E::-----:-------:-------:------:: E:----:

Holly Holy:(repeat 'till next break)
G::-----:----------:-----:--3--:-----:-------:-------:--------::
D::-----:----------:-----:-3--3:-----:-------:-------:-----3--::
A::-----:----------:1-111:1----:-----:-------:-------:----3--3::
E::1-111:111-111-11:-----:-----:1-111:111-111:111-111:(1)1----::

Outro:
G::-----:-------:---------:-----::
D::-----:-------:---------:--3--::
A::-----:-------:---------:-3--3::
E::1-111:111-111:111-111-1:1----::

And it's all there,Should be simple enough to find the changes?!
Comments/Corrections.
Добавлено: 24.09.2013
Другие материалы по этой песне:
  • Аккорды и текст

Страница создана 12.03.2012
http://primanota.ru/ub40/holly-holy-chords.htm
Привет, Гость.
Предлагаем пройти революционный курс по гитаре.
Подарок от PrimaNota.Ru, забирай!