PrimaNota.ru - самый крупный в мире бесплатный архив песенных текстов, аккордов, табулатур и нот


Ub40 - Easy Snappin - бас-таба, видео

Регистрация Запомнить меня
Войти через:  Facebook Google Twitter Vk Yandex Mail.ru

Ub40 - Easy Snappin - бас-таба, видео

Печатать
Просмотров: 185
Easy Snappin' Bass Tab & Chord changes,
From UB40's Labour Or Love 4 L.P:

I'll Tab the notes,But the Bars may be off a little,
So urge you to listen to the track for/if any confusion?!

Intro:Eb
G::--------:------:--------:------::
D::--------:---85-:--------:---85-::
A::66666666:6----6:66666666:6----6::
E::--------:------:--------:------::

  Eb(here i come again)
G::--------:------:--------:------:--------:------:--------:
D::--------:---85-:--------:---85-:--------:---85-:--------:
A::66666666:6----6:66666666:6----6:66666666:6----6:66666666:
E::--------:------:--------:------:--------:------:--------:
        Ab(easy snappin')               Eb
G:------:--------:------:--------:------:--------:------:
D:---85-:--------:------:--------:------:--------:---85-:
A:6----6:--------:---63-:--------:---63-:66666666:6----6:
E:------:44444444:4----4:44444444:4----4:--------:------:
                 Bb              Ab              Eb
G:--------:------:--------:------:--------:------:--------:
D:--------:---85-:--------:------:--------:------:--------:
A:66666666:6----6:--------:---85-:--------:---63-:66666666:
E:--------:------:66666666:6----6:44444444:4----4:--------:

G:------:--------:------::
D:---85-:--------:---85-::
A:6----6:66666666:6-6--6::
E:------:--------:------::

Then just repeat!
Comments/Corrections welcome.
Добавлено: 17.06.2013
Другие материалы по этой песне:
  • Аккорды и текст

Страница создана 17.06.2013
http://primanota.ru/ub40/easy-snappin-chords.htm
Привет, Гость.
Предлагаем пройти революционный курс по гитаре.
Подарок от PrimaNota.Ru, забирай!