PrimaNota.ru - самый крупный в мире бесплатный архив песенных текстов, аккордов, табулатур и нот


Ub40 - Dub Drop - бас-таба, видео

Регистрация Запомнить меня
Войти через:  Facebook Google Twitter Vk Yandex Mail.ru

Ub40 - Dub Drop - бас-таба, видео

Печатать
Просмотров: 134
DUB DROP is taken from UB40s DUB SESSIONS Album:

Drum:Intro:
         G:-------:------:-------:------:-------:------:-------:-------:
         D:-------:------:-------:------:-------:------:-------:-------:
         A:---5757:----57:---5757:----57:---5757:----57:---5757:----5/\:
         E:5-5----:7--7--:5-5----:77-7--:5-5----:7--7--:5-5----:77-7---:

8 bars of Keyboards/Chop on the 2&4:Then this Bass:          Drums back(& back to start).
G:-------:------:-------:------:-------:------:-------:-------:
D:---4646:-----4:---4646:-----4:---4646:-----4:---4646:-------:
A:4-4----:----7-:4-4----:----7-:4-4----:----7-:4-4----:-----7\:
E:-------:7--7--:-------:77-7--:-------:7--7--:-------:77--7--:

And it's pretty much the above mixed,And mixed with a few variations,In there 
somewhere?!(these & make your own for fun!).
G:------:------:  G:------:------:  G:-------:-----:  
D:------:------:  D:------:------:  D:-------:-----:
A:----57:----57:  A:----57:----57:  A:---5757:---7\:
E:5--5--:7--7--:  E:5-----:7777--:  E:5-5----:7----:

G:------:--------:  G:----------:-------:
D:----46:-----4-4:  D:----6--4--:-------:
A:4--4--:----7-7-:  A:4444------:-----7\:
E:------:7--7----:  E:--------5/:7-777--:

Once again Listen to the track(it makes sense)!
Добавлено: 06.08.2013
Другие материалы по этой песне:
  • Аккорды и текст

Страница создана 06.08.2013
http://primanota.ru/ub40/dub-drop-chords.htm
Привет, Гость.
Предлагаем пройти революционный курс по гитаре.
Подарок от PrimaNota.Ru, забирай!