PrimaNota.ru - самый крупный в мире бесплатный архив песенных текстов, аккордов, табулатур и нот


Ub40 - Cover Up - бас-таба, перевод, видео

Регистрация Запомнить меня
Войти через:  Facebook Google Twitter Vk Yandex Mail.ru

Ub40 - Cover Up - бас-таба, перевод, видео

Печатать
Просмотров: 252
Here is the Bass Tab for the title track off
UB40's 2001 album:Cover Up.

Drum/Percussion,Intro::
                    G::------:----:------:-3\--::
                    D::------:----:------:-----::
                    A::111-11:----:111-11:-----::
                    E::------:--11:------:---11::

Chorus':
Cover up with loving..
G:------:----:------:-3\--:------:----:------:-3\--:
D:------:----:------:-----:------:----:------:3----:
A:111-11:----:111-11:-----:111-11:----:111-11:---11:
E:------:--11:------:---11:------:--11:------:-----: 
                     
Verses:
Run away my sister..
G:------:----:------:--8\--:------:----:------:-8\--:
D:111-11:----:111-11:------:111-11:----:111-11:-----:
A:------:--11:------:(6)-11:------:--11:------:-----:
E:------:----:------:------:------:----:------:---11:
                      
Bars to Middles:
G:------:----:------:--8\--:
D:111-11:----:111-11:------:
A:------:--11:------:----11:
E:------:----:------:------:
                       
Middles:
Got to be safe if..
G:------:----:------:-8\--:------:----:------:----:
D:111-11:----:111-11:-----:------:----:------:-8\-:
A:------:--11:------:-----:111-11:----:111-11:----:
E:------:----:------:---11:------:--11:------:----:
                      
Fill on fade out:
G:---3(\):
D:-03----:
A:1---(1):
E:-------:
     

That should do it,Listen to the track!
\=Slide Down. ()=Play As/If Required.
Добавлено: 27.11.2013
Другие материалы по этой песне:
  • Аккорды и текст

Страница создана 12.05.2012
http://primanota.ru/ub40/cover-up-chords.htm
Привет, Гость.
Предлагаем пройти революционный курс по гитаре.
Подарок от PrimaNota.Ru, забирай!