PrimaNota.ru - самый крупный в мире бесплатный архив песенных текстов, аккордов, табулатур и нот


Ub40 - Alum Rock Securing The Peace - бас-таба, видео

Регистрация Запомнить меня
Войти через:  Facebook Google Twitter Vk Yandex Mail.ru

Ub40 - Alum Rock Securing The Peace - бас-таба, видео

Печатать
Просмотров: 174
Уроки эстрадного вокала в Санкт-Петербурге
Here is the Bass Tab for UB40's ALUM ROCK from their DUB SESSIONS
album(a DUB version of SECURING THE PEACE from their TWENTYFOURSEVEN
Deluxe Edition album,obviously works on both!).

("Check dis",Drums,Horns)
Intro:
G|----|----------|------------|-----------|-----------|
D|----|----------|------------|-----------|-----------|
A|----|33-33-33--|------------|33-33133-33|-----------|
E|--33|--3--3----|11011-133-33|--3--------|11011-13-33|


The intro: & below are first time 'round!!  (see NOTE)
G|------------|-----------|------------|-----------|
D|------------|-----------|------------|-----------|
A|------------|33-33133-33|------------|33-33311---|
E|11011-011-11|--3--------|11011-133-33|--3------33|

G|----------|------------|-----------|------------|
D|----------|------------|-----------|------------|
A|33-33-33--|------------|33133-33-33|------------|
E|--3--3----|11011-133-33|-----3-----|11011-133-33|

G|-----------|-----------|-----------|-----------|
D|-----------|-----------|-----------|-----------|
A|-----------|33-33-3~-33|-----------|33133-3-111|
E|1101101~-11|--3--3-----|11011-1-333|-----------|

NOTE:This is played on a 5 string Bass so tried mi best to make
it so it works on a 4 string with a few optional notes!!
The above is pretty much it mixed up in a rub a dub style.. Comment/Corrections?..
Добавлено: 24.02.2014
Другие материалы по этой песне:
  • Аккорды и текст

Страница создана 24.02.2014
http://primanota.ru/ub40/alum-rock-securing-the-peace-chords.htm
Привет, Гость.
Предлагаем пройти революционный курс по гитаре.
Подарок от PrimaNota.Ru, забирай!