PrimaNota.ru - самый крупный в мире бесплатный архив песенных текстов, аккордов, табулатур и нот


U2 - Walk On Live - бас-таба, видео

Регистрация Запомнить меня
Войти через:  Facebook Google Twitter Vk Yandex Mail.ru

U2 - Walk On Live - бас-таба, видео

Печатать
Просмотров: 118
ARTIST: U2

TITLE: WALK ON (LIVE 360° TOUR)



BY: LUCA GEMMA


standard tuning

INTRO

G|----------------|----------------|----------------|7-0----7--7<9---|
D|----------------|----------------|----------------|----------------|
A|5~~~----------5>|3~~~----------3<|10~~~-----------|----------------|  X4
E|----------------|----------------|----------------|----------------|

G|----------------|----------------|----------------|----------------|
D|----------------|----------------|----------------|----------------|
A|5-5-5-5-5-5-5-5-|----------------|----------------|----------------|  X2
E|----------------|5-5-5-5-5-5-5-5-|3-3-3-3-3-3-3-3-|0-0-0-0-0-0-0-0-|

VERSE

G|----------------|----------------|----------------|----------------|
D|----------------|----------------|----------------|----------------|
A|5-5-5-5-5-5-5-5-|----------------|----------------|----------------|  X2
E|----------------|5-5-5-5-5-5-5-5-|3-3-3-3-3-3-3-3-|0-0-0-0-0-0-0-0-|

G|----------------|----------------|----------------|----------------|
D|----------------|----------------|----------------|----------------|
A|5-5-5-5-5-5-5-5-|----------------|----------------|---------------7|
E|----------------|5-5-5-5-5-5-5-5-|3-3-3-3-3-3-3-3-|0-0-0-0----7-10-|

G|----------------|----------------|----------------|----------------|
D|----------------|----------------|----------------|----------------|
A|5-5-5-5-5-5-5-5-|---------------7|7-7------------7|7-7------------7|
E|----------------|5-5-5-5--5-7-10-|---------5-7-10-|-----------7-10-|

CHORUS

G|----------------|----------------|----------------|----------------|
D|----------------|----------------|----------------|----------------|
A|5-5-5-5-5-5-5-5-|----------------|----------------|---------------7|  X2
E|----------------|5-5-5-5-5-5-5-5-|3-3-3-3-3-3-3-3-|0-0-0-0----7-10-|

VERSE

G|----------------|----------------|----------------|----------------|
D|----------------|----------------|----------------|----------------|
A|5-5-5-5-5-5-5-5-|----------------|----------------|----------------|  
E|----------------|5-5-5-5-5-5-5-5-|3-3-3-3-3-3-3-3-|0-0-0-0-0-0-0-0-|

G|----------------|----------------|----------------|----------------|
D|----------------|----------------|----------------|----------------|
A|5-5-5-5-5-5-5-5-|----------------|----------------|--------------2-|  
E|----------------|5-5-5-5-5-5-5-5-|3-3-3-3-3-3-3-3-|0---3---5-------|

G|----------------|----------------|----------------|----------------|
D|----------------|----------------|----------------|----------------|
A|5-5-5-5-5-5-5-5-|----------------|----------------|---------------7|
E|----------------|5-5-5-5-5-5-5-5-|3-3-3-3-3-3-3-3-|0-0-0-0----7-10-|

G|----------------|----------------|----------------|----------------|
D|----------------|----------------|----------------|----------------|
A|5-5-5-5-5-5-5-5-|---------------7|7-7------------7|7-7------------7|
E|----------------|5-5-5-5--5-7-10-|---------5-7-10-|-----------7-10-|

CHORUS

G|----------------|----------------|----------------|----------------|
D|----------------|----------------|----------------|----------------|
A|5-5-5-5-5-5-5-5-|----------------|----------------|---------------7|  X2
E|----------------|5-5-5-5-5-5-5-5-|3-3-3-3-3-3-3-3-|0-0-0-0----7-10-|

G|----------------|----------------|----------------|----------------|
D|----------------|----------------|----------------|----------------|
A|5-5-5-5-5-5-5-5-|---------------7|7-7------------7|7-7------------7|
E|----------------|5-5-5-5--5-7-10-|---------5-7-10-|-----------7-10-|

SOLO

G|----------------|----------------|----------------|----------------|
D|----------------|----------------|----------------|----------------|
A|2-2--2--2-2--0-2|-----------2<-4-|-----------2<-4-|-------------4--|
E|----------------|3--3-3----------|00-00-----------|5--5-5-----7----|

G|----------------|----------------|----------------|----------------|
D|----------------|----------------|----------------|----------------|
A|2-2--2--2-2--0-2|-----------2<-4-|-----------2<-4-|-------------4--|
E|----------------|3--3-3----------|00-00-----------|5--5-5-----7---7|

G|----------------|----------------|----------------|
D|----------------|----------------|----------------|
A|-------------4--|-------------4--|-------------4--|
E|5--5-5-----7---7|5--5-5-----7---7|5--5-5-----7---7|



G|----------------|----------------|----------------|----------------|
D|----------------|----------------|----------------|----------------|
A|5-5-5-5-5-5-5-5-|4-4-4-4-4-4-4-4-|----------------|---------------7|
E|----------------|----------------|3-3-3-3-3-3-3-3-|0-0-0-0----7-10-|

G|----------------|----------------|----------------|----------------|
D|----------------|----------------|----------------|----------------|
A|5-5-5-5-5-5-5-5-|4-4-4-4-4-4-4-4-|---------------7|----------------|
E|----------------|----------------|3-3-3-3----7-10-|3-3-3-3-3-3-3-3-|

G|----------------|----------------|----------------|----------------|
D|----------------|----------------|----------------|----------------|
A|5-5-5-5-5-5-5-5-|4-4-4-4--------7|7-7------------7|7-7------------7|
E|----------------|---------5-7-10-|---------5-7-10-|-----------7-10-|

G|----------------|----------------|----------------|----------------|
D|----------------|----------------|----------------|----------------|
A|5-5-5-5-5-5-5-5-|---------------7|7-7------------7|7-7------------7|
E|----------------|5-5-5-5--5-7-10-|---------5-7-10-|-----------7-10-|

G|----------------|----------------|----------------|----------------|
D|----------------|----------------|----------------|----------------|
A|----------------|----------------|----------------|----------------|  
E|0~~-------------|----------------|----------------|----------------|

G|----------------|----------------|----------------|----------------|
D|----------------|----------------|----------------|----------------|
A|----------------|----------------|----------------|----------------|  
E|----------------|----------------|----------------|----------------|

G|----------------|----------------|----------------|----------------|
D|----------------|----------------|----------------|----------------|
A|----------------|----------------|----------------|----------------|  
E|----------------|----------------|----------------|----------------|

OUTRO

G|----------------|----------------|----------------|----------------|
D|----------------|----------------|----------------|----------------|
A|----------------|----------------|----------------|----------------|  
E|----------------|----------------|----------------|5-5-5-5-5-5-5-5-|

G|----------------|----------------|----------------|----------------|
D|----------------|----------------|----------------|----------------|
A|----------------|----------------|5-5-5-5-5-5-5-5-|----------------|  
E|0-0-0-0-0-0-0-0-|3-3-3-3-3-3-3-3-|----------------|5-5-5-5-5-5-5-5-|

G|----------------|----------------|----------------|----------------|
D|----------------|----------------|----------------|----------------|
A|----------------|----------------|5-5-5-5-5-5-5-5-|----------------|  
E|0-0-0-0-0-0-0-0-|3-3-3-3-3-3-3-3-|----------------|5---5-5----3--2-|

G|----------------|----------------|----------------|----------------|
D|----------------|----------------|----------------|----------------|
A|----------------|--------------2-|5---------------|----------------|  X3
E|0---0-0---0-0-2-|3---3-3---3-5---|---0----2----3--|5---5-5----3--2-|

G|----------------|----------------|----------------|
D|----------------|----------------|----------------|
A|----------------|----------------|5~~~------------| 
E|0---0-0---0-0-2-|3~~~------------|----------------|

Question, Comments, Corrections shall be sent to gemma.luca@gmail.com
Добавлено: 04.04.2012
Другие материалы по этой песне:
  • Аккорды и текст

Страница создана 04.04.2012
http://primanota.ru/u2/walk-on-live-chords.htm
Привет, Гость.
Предлагаем пройти революционный курс по гитаре.
Подарок от PrimaNota.Ru, забирай!