PrimaNota.ru - самый крупный в мире бесплатный архив песенных текстов, аккордов, табулатур и нот


U2 - Things To Make And Do - таба, видео

Регистрация Запомнить меня
Войти через:  Facebook Google Twitter Vk Yandex Mail.ru

U2 - Things To Make And Do - таба, видео

Печатать
Просмотров: 192
Уроки эстрадного вокала в Санкт-Петербурге
-----------------------------------------------------------------------------
                             Things To Make And Do – U2
-----------------------------------------------------------------------------
Tabbed by: olive14
Email: olive14@u2.com

Tuning:EbAbDbGbBbeb

e|-2---3---5---3---2---0---0-2-5-2-2---3---5---3---2---0---0-2~-------------|
B|---3---3---3---3---3---3-----------3---3---3---3---3---3------------------|
G|--------------------------------------------------------------------------|
D|--------------------------------------------------------------------------|
A|--------------------------------------------------------------------------|
E|--------------------------------------------------------------------------|

e|-5-X-X-X-2---3---5-X-X-X-2-------5-X-X-X-2---3---5-X-X-X-2---0------------|
B|-3---------3---3-3---------3---3-3---------3---3-3---------3---3----------|
G|-2---------------2-----------4---2---------------2------------------------|
D|-0---------------0---------------0---------------0------------------------|
A|--------------------------------------------------------------------------|
E|--------------------------------------------------------------------------|

e|-5-X-X-X-2---3---5-X-X-X-2-----------10----------10----------10-----------|
B|-3---------3---3-3---------3---3/-------11-10-------11-10-------11-10-----|
G|-2---------------2-----------4----11----------11----------11--------------|
D|-0---------------0--------------------------------------------------------|
A|--------------------------------------------------------------------------|
E|--------------------------------------------------------------------------|

e|----10-------5-X-X-X-12/15-14-5-X-X-X-19-15-17-5-X-X-X-15-14-12-10--------|
B|-------11-10-3-------10/13-12-3-------17-14-15-3-------13-12-10--8--------|
G|-11----------2----------------2----------------2--------------------------|
D|--------------------------------------------------------------------------|
A|--------------------------------------------------------------------------|
E|--------------------------------------------------------------------------|

e|-5-X-X-X-17-19-15---------------------------------------------------------|
B|-3-------15-17-13---------------------------------------------------------|
G|-2------------------------------------------------------------------------|
D|--------------------------------------------------------------------------|
A|--------------------------------------------------------------------------|
E|--------------------------------------------------------------------------|

Then it's almost always the same except this one towards the end :
e|--17-19-17-15-------------------------------------------------------------|
B|--15-17-15-13-------------------------------------------------------------|
G|--------------------------------------------------------------------------|
D|--------------------------------------------------------------------------|
A|--------------------------------------------------------------------------|
E|--------------------------------------------------------------------------|

I believe that's enough…

Hoping this can help…

Sorry for my bad English…

The best page to get Edge's sound :
http://www.amnesta.net/edge_delay/  Good luck with it !!!


| /  slide up
| \  slide down
| h  hammer-on
| p  pull-off
| ~  vibrato
| +  harmonic
| x  Mute note
=============================================================================
Добавлено: 26.03.2012
Другие материалы по этой песне:
  • Аккорды и текст

Страница создана 26.03.2012
http://primanota.ru/u2/things-to-make-and-do-chords.htm
Привет, Гость.
Предлагаем пройти революционный курс по гитаре.
Подарок от PrimaNota.Ru, забирай!