PrimaNota.ru - самый крупный в мире бесплатный архив песенных текстов, аккордов, табулатур и нот


U2 - The Fly Elevation - таба, видео

Регистрация Запомнить меня
Войти через:  Facebook Google Twitter Vk Yandex Mail.ru

U2 - The Fly Elevation - таба, видео

Печатать
Просмотров: 103
Ambient Intro to ^ÓThe Fly^Ô----Elevation Tour by Paul Di Gaetano. This is my 
work, don't copy it as your own.

I figured this part out a long time ago, but it wasn't until I was looking 
through the internet that I realized other people wanted to play this too. I 
tabbed it, since nobody else did. :)

The only requirements are that you tune your guitar half a step.

The three chords in this arpeggio intro:
e-------9----
B------10---
G------11---
D------11---
A------9----
E------x----

e------5----
B------5----
G------6----
D------7----
A------7----
E------x----

e------5----
B------7----
G------7----
D------7----
A------5----
E------x----

---------9-----------------------5------------------------------------------
------------10-----------------------5----------------7-------7------7------
-----11--------11------------6---------6---------7----7-------7------7---
--11-----------------------7-------------------7----------7*-------7*-------7* 
9------------------------7-------------------5-----------------------------
----------------------------------------------------------------------------
         *play note faintly

Note: The way you can play the last few notes in the third chord is at your 
discretion. Edge might hit the e-minor sometimes, but it's usually a muted 
string. Practice along with the DVD and you'll develop your own style.

Have fun!

Comments? Suggestions? paul_anthony89@hotmail.com

     
Добавлено: 24.10.2013
Другие материалы по этой песне:
  • Аккорды и текст

Страница создана 23.10.2013
http://primanota.ru/u2/the-fly-elevation-chords.htm
Привет, Гость.
Предлагаем пройти революционный курс по гитаре.
Подарок от PrimaNota.Ru, забирай!