PrimaNota.ru - самый крупный в мире бесплатный архив песенных текстов, аккордов, табулатур и нот


U2 - Sunday Bloody Sunday Live - таба, видео

Регистрация Запомнить меня
Войти через:  Facebook Google Twitter Vk Yandex Mail.ru

U2 - Sunday Bloody Sunday Live - таба, видео

Печатать
Просмотров: 104
Tabbed by Murt Maher
 

Sunday Bloody Sunday (live from the elevation tour) by U2
This song is very simple. I figured this out from U2 live at Slane Castle
and Live in Boston.
 

Intro Riff:
 
   Bm      D       G
e-------2-------2-------0-------0-------
b-----3---3---3---2---3---3---3---3-----
g---4-------2-------0-------0------0----
d---------------------------------------
a---------------------------------------
e---------------------------------------
 
 
 
bridge
 
How long.....
 
  D    Em     D    G
e--2-----0-----2-----3------------------
b--3-----0-----3-----3------------------
g--2-----0-----2-----0------------------
d--0-----2-----0-----0------------------
a--------2-----------2------------------
e--------0-----------3------------------
 

chorus
 
But tonight.....
 
  Bm     D          G              
e--7--7---------------------------------------
b--7--7---7-7-7---12-12---12-12-12-12---------
g--7--7---7-7-7---12-12---12-12-12-12---------
d--9--9---7-7-7---12-12---12-12-12-12---------
a--9--9---5-5-5---10-10---10-10-10-10---------
e---------------------------------------------
 

harmonics
 
Sunday bloody sunday....
 
e--------------------------------------------------------
b-------------------(7)-------------------------(7)------
g--------------(5)-----(7)----------------(5)------(7)---
d-----(7)---(5)-------------------(7)---(5)--------------
a--(7)-------------------------(7)-----------------------
e--------------------------------------------------------
 
 
 
Solo:
 
This solo is very easy.
 
(h stands for hammer-on)
 
e-12-12-12-10-10---12-12-12-10-10------------------------------------
b--0--0--0--0--0----0--0--0--0--0----12-12-12-10-10---12-12-12-10-10-
g-------------------------------------0--0--0--0--0----0--0--0--0--0-
d--------------------------------------------------------------------
a--------------------------------------------------------------------
e--------------------------------------------------------------------
 

e--------------------------------------------------------
b-10-10-10--8--8--8--7--7--7--5--5--5--3--3--h5--3--2--0-
g--0--0--0--0--0--0--0--0--0-----------------------------
d--------------------------------------------------------
a--------------------------------------------------------
e--------------------------------------------------------
 

e--------------------------------------------------10-10--9--------------
b---0-2-3-2-3-5-3-5-7-5-7-8-7-8-10-8-10-12-10-12------------10-12-12-----
g-2----------------------------------------------------------------------
d------------------------------------------------------------------------
a------------------------------------------------------------------------
e------------------------------------------------------------------------
 

The Edge plays some muted strings after the solo and then plays harmonics
again.
He then repeats the chorus.
 
Thats it! Hope you enjoy

     
Добавлено: 02.08.2013
Другие материалы по этой песне:

Страница создана 10.04.2012
http://primanota.ru/u2/sunday-bloody-sunday-live-chords.htm
Привет, Гость.
Предлагаем пройти революционный курс по гитаре.
Подарок от PrimaNota.Ru, забирай!