PrimaNota.ru - самый крупный в мире бесплатный архив песенных текстов, аккордов, табулатур и нот


U2 - Some Days Are Better Than Others - текст песни, таба, бас-таба, видео

Регистрация Запомнить меня
Войти через:  Facebook Google Twitter Vk Yandex Mail.ru

U2 - Some Days Are Better Than Others - текст песни, таба, бас-таба, видео

Печатать
Просмотров: 183
Уроки эстрадного вокала в Санкт-Петербурге
-------------------------------------------------------------------------------
                             Some Days Are Better Than Others - U2
-------------------------------------------------------------------------------

Tuning: standard 

chorus

e|-----16----16----18----18----16----16----14----14----13----13----11----11--|
B|--14----14----14----14----14----14----14----14----14----14----14----14-----|
G|---------------------------------------------------------------------------|
D|---------------------------------------------------------------------------|
A|---------------------------------------------------------------------------|
E|---------------------------------------------------------------------------|

e|-----13----13----14----14--------------------------------------------------|
B|--14----14----14----14-----------------------------------------------------|
G|---------------------------------------------------------------------------|
D|---------------------------------------------------------------------------|
A|---------------------------------------------------------------------------|
E|---------------------------------------------------------------------------|

right after second chorus

e|---------------------------------------------------------------------------|
B|---------------------------------------------------------------------------|
G|---------------------------------------------------------------------------|
D|--4----3-------3-4-4b-4-3-----3-3-4-4--3-----------3-4-3-4-3---------------|
A|-------------4----------------------------4--2---------------4-------------|
E|---------------------------------------------------------------------------|

afterwards

e|------------------------11-------------------------------------------------|
B|--11b---11br-9----11b------11pbr-9----11b---11br-9----7-7--6---------------|
G|---------------------------------------------------------------------------|
D|---------------------------------------------------------------------------|
A|---------------------------------------------------------------------------|
E|---------------------------------------------------------------------------|


************************************

| /   slide up
| \   slide down
| h   hammer-on
| p   pull-off
| ~   vibrato
| +   harmonic
| x   Mute note
| b   Bend
| pb  Pre-bend
| br  Bend release
| pbr Pre-bend release
| brb Bend release bend

************************************
Добавлено: 06.06.2015
Другие материалы по этой песне:
  • Аккорды и текст

Страница создана 09.06.2012
http://primanota.ru/u2/some-days-are-better-than-others-chords.htm
Привет, Гость.
Предлагаем пройти революционный курс по гитаре.
Подарок от PrimaNota.Ru, забирай!