PrimaNota.ru - самый крупный в мире бесплатный архив песенных текстов, аккордов, табулатур и нот


U2 - Scarlet - бас-таба, видео

Регистрация Запомнить меня
Войти через:  Facebook Google Twitter Vk Yandex Mail.ru

U2 - Scarlet - бас-таба, видео

Печатать
Просмотров: 156
SCARLET
U2

Taken from the Island album October (1981)

Transcribed by: Damian Pamminger (TwitcheD_85@hotmail.com)

Standard tuning: E A D G

Pause

|-14--12--11--12--11--14----------------14--12--11--12--11---------------------------|
|--0---0---0---0---0---0---------12--0---0---0---0---0---0---12--------12--0---------|
|-----------------------------12-------------------------------------10--------------|
| -----------------------------------------------------------------------------------|

REPEAT once  more

|-12--14-12--14-12-14/-16-16-16-16---16-16-16-\-12--14-12--14-12-14\-9-9-9-9------|
|--0---0--0---0--0--0---0--0--0--0-----0--0--0----0---0--0---0--0--0-- 0-0-0-0----|
|---------------------------------------------------------------------------------|
|---------------------------------------------------------------------------------|

|-9-9-9/-12--14-12--14-12-14/-16-16-16-16---16-16-16-\-12--14-12--14-12-14\-----|
|-0-0-0---0---0--0---0--0--0---0--0--0--0-----0--0--0----0---0--0---0--0--0-----|
|-------------------------------------------------------------------------------|
|-------------------------------------------------------------------------------|

|-9-9-9-9---------------------|
|-0-0-0-0---------------------|
| ----------------------------|
| ----------------------------|

Pause

|-14--12--11--12--11--14----------------14--12--11--12--11------------------------|
|--0---0---0---0---0---0---------12--0---0---0---0---0---0--12--------12--0-------|
|-----------------------------12------------------------------------10------------|
| --------------------------------------------------------------------------------|

REPEAT once more

|-12--14-12--14-12-14/-16-16-16-16---16-16-16-\-12--14-12--14-12-14\- 9-9-9-9-----|
|--0---0--0---0--0--0---0--0--0--0-----0--0--0----0---0--0---0--0--0---0-0-0-0----|
|---------------------------------------------------------------------------------|
|---------------------------------------------------------------------------------|

|-9-9-9/-12--14-12--14-12-14/-16-16-16-16---16-16-16-\-12--14-12--14-12-14\------|
|-0-0-0---0---0--0---0--0--0---0--0--0--0-----0--0--0----0---0--0---0--0--0------|
| -------------------------------------------------------------------------------|
| -------------------------------------------------------------------------------|

|-9-9-9-9----9-9-9-7--9-7--9-7-9-\-4-4-4-4----4-4-4/-7--9-7--9-7-9/-----|
|-0-0-0-0----0-0-0-0--0-0--0-0-0---0-0-0-0----0-0-0--0--0-0--0-0-0------|
| ----------------------------------------------------------------------|
| ----------------------------------------------------------------------|

|-12----------------|
|--0----------------|
|-------------------|
|-------------------|

Pause

|-14--12--11--12--11--14----------------14--12--11--12--11-------------------------|
|--0---0---0---0---0---0---------12--0---0---0---0---0---0--12--------12--0--------|
|----------------------------12-------------------------------------10-------------|
|----------------------------------------------------------------------------------|

Repeat for the end fade
Добавлено: 23.03.2012
Другие материалы по этой песне:
  • Аккорды и текст

Страница создана 23.03.2012
http://primanota.ru/u2/scarlet-chords.htm
Привет, Гость.
Предлагаем пройти революционный курс по гитаре.
Подарок от PrimaNota.Ru, забирай!