PrimaNota.ru - самый крупный в мире бесплатный архив песенных текстов, аккордов, табулатур и нот


U2 - Humvee - таба, видео

Регистрация Запомнить меня
Войти через:  Facebook Google Twitter Vk Yandex Mail.ru

U2 - Humvee - таба, видео

Печатать
Просмотров: 125
Stanard tuning. Arnie Style.

e|-----1-9-9-------------------------------|
b|-----1-9-4-------------------------------|
g|-1-1-1-9-4-------------------------------|
d|-1-1-2-8-3--------------------------9----|
a|-2-2-3-8-2-0-12-10-9-7-5-3-5-7-10-12-----|
e|---2-2-1-1-------------------------------|x2
 Humvee, Humvee, Do you like my Humvee. Yes.
e|-----1-9-9-------------------------------1-1-1-3|
b|-----1-9-4--------------------------------------|
g|-1-1-1-9-4--------------------------------3--3--|
d|-1-1-2-8-3--------------------------9-------4--4|
a|-2-2-3-8-2-0-12-10-9-7-5-3-5-7-10-12------------|
e|---2-2-1-1--------------------------------------|x2
 I like Humvees. I have 10. Do you like my Humvee.

t3h uber solo of awsomeapower ownage

Arnie's solo

Gtr.3 (3:24)
e|-18-15----------------------------------15-18-14-17p14----------14\8-|
B|-------16-15----------------------15-16----------------15----15------|
G|-------------15-12----------12-15-------------------------14---------|
D|-------------------13-12-13------------------------------------------|
A|---------------------------------------------------------------------|
E|---------------------------------------------------------------------|

V         ~~
e|-----------|
B|-10h7------|
G|------8h7--|
D|-----------|
A|-----------|
E|-----------|

e|------------------------------------------------|
B|------------------------------8---------8-10-11-|
G|--------7---------7-10p7h8h10---10-8-10---------|
D|-7-8-10---10-7-10-------------------------------|
A|------------------------------------------------|
E|------------------------------------------------|
PM . . .    .  .  .

e|---------8---------------10-11-13-11-10-------------10-11/15-15-|
B|-8-10-11---11-10-8-11-13----------------13-11-10-13-------------|
G|----------------------------------------------------------------|
D|----------------------------------------------------------------|
A|----------------------------------------------------------------|
E|----------------------------------------------------------------|


e|-13-11------------13/17-17-15-13-------------13-15/19-17-15----------|
B|-------15-13-15-x----------------16-15-13-16----------------18-16-15-|
G|---------------------------------------------------------------------|
D|---------------------------------------------------------------------|
A|---------------------------------------------------------------------|
E|---------------------------------------------------------------------|
 Humvee. Ownige. Humvee. Nukes
V                                    ~~~
e|----15-17/21-20-18-------------------------|
B|-18----------------20-17-17-20-20-20fb-20b-|
G|-------------------------------------------|
D|-------------------------------------------|
A|-------------------------------------------|
E|-------------------------------------------|

V        ~~~
e|-18-20-20fb-20fb-|
B|-----------------|
G|-----------------|
D|-----------------|
A|-----------------|
E|-----------------|

Rythem Gtr.
e|-----------------------------|
B|-----------------------------|
G|-----------------------------|
D|-7-7-0-5-5-0-2-2-x---------7-|
A|-5-5-0-3-3-0-5-5-x---------5-|
E|-------------------2-3-4-5---|
PM     .     .

Adam's solo (3:37)

Gtr. 4
V          ~~         ~~                             ~~
e|---------------------------------8---------------------------|
B|---------11---------10---------8---8-6PH-5h6p5---------------|
G|-10-9-10-----\9-7-9-----\7-5-7-----------------7-5-7---------|
D|-------------------------------------------------------------|
A|-------------------------------------------------------------|
E|-------------------------------------------------------------|

Rythem Gtr.
e|-------------------|
B|-------------------|
G|-------------------|
D|-7---7---5---5-x-3-|
A|-5-0-4-0-3-0-2-x-1-|
E|-------------------|
PM   .   .   .

e|--------------------------10h13-10----------------------------------|
B|--------------------10h13----------13p10h13p10----------------------|
G|-/10-----------9h12----------------------------12p10h12p10-12fb-12b-|
D|----------8h12------------------------------------------------------|
A|-----8-12-----------------------------------------------------------|
E|--------------------------------------------------------------------|
PM     . .

V                                                       ~~
e|---------------------------------------10-------10-13-12--10----12---|
B|-----------10-----10-10-10-10-10----10-13b(full)-------------13-15fb-|
G|-10--------10-----10-10-10-10-10-12----------------------------------|
D|----12-0-0----0-0----------------------------------------------------|
A|---------------------------------------------------------------------|
E|---------------------------------------------------------------------|
PM       . .    . .

V          ~~                        ~~
e|-12--15--13--12----13--------13-17-15--13-15/18-17----------------|
B|----------------15-16b(full)-----------------------18-------------|
G|------------------------------------------------------17\12-12h14-|
D|------------------------------------------------------------------|
A|------------------------------------------------------------------|
E|------------------------------------------------------------------|

e|---------------------------------------------------------|
B|-----------------------------------------8-10-11-8-10-11-|
G|---------------------------7-9-10-7-9-10-----------------|
D|-------------7-8-10-7-8-10-------------------------------|
A|-5-7-8-5-7-8---------------------------------------------|
E|---------------------------------------------------------|
PM . . . . . . . . . . . . .

e|-------------------------------------------------|
B|-13-11-10----11-10-------------------------------|
G|----------12-------12-10-14-12-10----12-10-------|
D|----------------------------------14-------14-12-|
A|-------------------------------------------------|
E|-------------------------------------------------|

V  ~~
e|-10---12---13---15---17\-|
B|-13fb-15fb-16fb-18fb-----|
G|-------------------------| (this one)
D|-------------------------|
A|-------------------------|
E|-------------------------|
(these are played at the same time...hear the song you'll get what I mean)
V                       ~~
e|--------------------------|
B|--------------------------|
G|-10-----------------------|
D|----14-12-10----10-11-12\-| (and this one)
A|-------------12-----------|
E|--------------------------|

Harmonize solo thanks to Adam and Arnie ^_^

Gtr. 3(4:03)
V           ~~
e|------------------------------------------------------------------------|
B|----------------------------------------------------------15------------|
G|-------14----------------------14-17-15h17p15p14----15-17----17-14------|
D|----15----17-14----14h15-15-17-------------------17----------------17-15|
A|-17-------------15------------------------------------------------------|
E|------------------------------------------------------------------------|

Gtr.5
V           ~~                                                ~~
e|------------------------------------------------------------------------|
B|------------------------------------------------------------------------|
G|---------------------------------14-12h14p12-------12-14-15-14----------|
D|----12-15-14-------/12-12--14-15-------------15-14-------------15-14-12-|
A|-13----------15-12------------------------------------------------------|
E|------------------------------------------------------------------------|

Gtr. 3
V                 ~~          ~~
e|----------------------------------------------------------------------|
B|----------------------------------------------------------------------|
G|-------14----------------14----------------------14-17-15h17p15p14----|
D|-15-17----17-15-14----15----17-14----14h15-15-17-------------------17-|
A|-------------------17-------------15----------------------------------|
E|----------------------------------------------------------------------|


Gtr.5
V                 ~~         ~
e|-------------------------------------------------------------------|
B|-------------------------------------------------------------------|
G|--------------------------------------------------14-12h14p12------|
D|-12-14-15-14-12------12-15-14-------/12-12-14-15-------------15-14-|
A|----------------15-13----------15-12-------------------------------|
E|-------------------------------------------------------------------|
 I eat Prius for man meals.
Gtr. 3
V                        ~~~~~~~~~~~
e|---------------------------------------------------|
B|-17-------17-------17b-17--------------------------|
G|----14-------14------------------------------------|
D|-------17-------17-----------------------7-5-7-/10-|
A|-----------------------------------8-7-8-----------|
E|---------------------------------------------------|
 Humvee. Eco Friendly. Sucks. Humvee.
Gtr.5
V                         ~~~~~~~~~~
e|--------------------------------------------------------|
B|--------------------------------------------------------|
G|-17-------17-------17fb-17------------------------------|
D|----15-14----15-14--------------------------10----10-14-|
A|-----------------------------------12-10-12----13-------|
E|--------------------------------------------------------|

Gtr. 5
e|-------------------------------------------------------------|
B|-------------------------------------------------------------|
G|----------10-9-7-------------------10-------12fb-10----------|
D|-10-7---7--------10-7-10-/12-12-12----12-12---------12-10----|
A|------8---------------------------------------------------12-|
E|-------------------------------------------------------------|
PM                              . .      .  .

Gtr. 3
e|------------------------------------------------------------|
B|----------------------------------------10-------11fb-10----|
G|-------------14-12-10----------10-10-10----10-10---------10-|
D|-14-12----10----------14-10-14------------------------------|
A|-------12---------------------------------------------------|
E|------------------------------------------------------------|
PM                                   .  .     .  .

Gtr. 3
e|------------------------|
B|------------------------|
G|-------10-------12fb-10-|
D|-12-12----12-12---------|
A|------------------------|
E|------------------------|
PM .  .      .  .

Gtr. 5
e|---------------------------|
B|---------------------------|
G|---------------------------|
D|-------10-------11fb-10/11-|
A|-10-10----10-10------------|
E|---------------------------|
 Do you like my Humvee.

Gtr.3 (4:30)
e|-12p10-------12p10-------12p10-------12p10-------|
B|-------11-11-------11-11-------11-11-------11-11-|
G|-------------------------------------------------|
D|-------------------------------------------------|
A|-------------------------------------------------|
E|-------------------------------------------------|
PM        .  .        . .         .  .        .  .

Gtr. 5
e|-15p13-------15p13-------15p13-------15p13-------|
B|-------15-15-------15-15-------15-15-------15-15-|
G|-------------------------------------------------|
D|-------------------------------------------------|
A|-------------------------------------------------|
E|-------------------------------------------------|
PM        .  .        . .         .  .        .  .

Gtr.3
e|-13p12-------13p12-------13p12-------13p12-------|
B|-------13-13-------13-13-------13-13-------13-13-|
G|-------------------------------------------------|
D|-------------------------------------------------|
A|-------------------------------------------------|
E|-------------------------------------------------|
PM        .  .        . .         .  .        .  .
Gtr. 5
e|-17p15-------17p15-------17p15-------17p15-------|
B|-------17-17-------17-17-------17-17-------17-17-|
G|-------------------------------------------------|
D|-------------------------------------------------|
A|-------------------------------------------------|
E|-------------------------------------------------|
PM        .  .        . .         .  .        .  .


Gtr.3
e|-15p12-15p12-------15p12-15p12-------15p12-----|
B|-------------13-13-------------13-13-------x-x-|
G|-----------------------------------------------|
D|-----------------------------------------------|
A|-----------------------------------------------|
E|-----------------------------------------------|
PM              .  .              .  .

Gtr.5
e|-18p15-18p15-------18p15-18p15-------18p15-------|
B|-------------17-17-------------17-17-------15-15-|
G|-------------------------------------------------|
D|-------------------------------------------------|
A|-------------------------------------------------|
E|-------------------------------------------------|
PM              .  .              .  .       .  .

Gtr. 3
V                                                                   ~~
e|-13p10----10-----------------------------------------------------------|
B|-------13----13p10-13p10----10------------------------------13-10-13fb-|
G|-------------------------12----12p10-12p10----10-12fb-12-10------------|
D|-------------------------------------------12--------------------------|
A|-----------------------------------------------------------------------|
E|-----------------------------------------------------------------------|
  Humvee.
Gtr. 3
V                                                                   ~~
e|-20p17----17-----------------------------------------------------------|
B|-------20----20p17-20p17----17------------------------------20-17-20fb-|
G|-------------------------19----19p17-19p17----17-19fb-19-17------------|
D|-------------------------------------------19--------------------------|
A|-----------------------------------------------------------------------|
E|-----------------------------------------------------------------------|

  Humvee.
Добавлено: 29.11.2013
Другие материалы по этой песне:
  • Аккорды и текст

Страница создана 29.11.2013
http://primanota.ru/u2/humvee-chords.htm
Привет, Гость.
Предлагаем пройти революционный курс по гитаре.
Подарок от PrimaNota.Ru, забирай!