PrimaNota.ru - самый крупный в мире бесплатный архив песенных текстов, аккордов, табулатур и нот


U2 - God Part Ii Live - таба, видео

Регистрация Запомнить меня
Войти через:  Facebook Google Twitter Vk Yandex Mail.ru

U2 - God Part Ii Live - таба, видео

Печатать
Просмотров: 150
You can find the live version of this song on www.youtube.com

U2 - God Part 2 live from Lovetown Tour 1989

intro

slightly palm muted

E|--------------------|--------------------|
B|--------------------|--------------------|
G|--------------------|--------------------|
D|--------------------|--------------------|  2x
A|--------------------|--------------------|
E|--2-2--1-1--2-2--4--|--2-2--4-4--2-2--4--|

... don't believe in UZI...
E|-----------------------|
B|----12-------12--------|
G|----10-------10--------|
D|-----------------------|
A|-----------------------|
E|-----------------------|
Just before the main riff  make these slides. You will know how to play them if you watch the video.
E|--------------------|
B|--------------------|
G|--------------------|
D|--------------------|
A|--------------------|
E|-16\-/16-\-/16\-----|

Main riff
    G#5    F#   G#
E|--------x----x-------|
B|--------11---13------|
G|--------11---13------| ~16x
D|--6--x--x----x-------|
A|--6--x--x----x-------|
E|--4--x---------------|

bridge
    D#              C#                 B5   C#    G#5   F#  G#
E|--11---11---11-------------------------------|-------------------------|
B|--11---11---11-------------------------------|-------x---x------x--x---|
G|--12---12---12----10---10-10-10-10--------10-|-------11--13-----11-13--|
D|--13---13---13----11---11-11-11-11---9----11-|--6-x--11--13-----11-13--|
A|--13---13---13----11---11-11-11-11---9----11-|--6-x--x---x------x--x---|
E|--11---11---11----9----9--9--9--9----7----9--|--4-x--------------------|

Solo #1

E|------------------------------|--------------7-----------7--------|
B|--9--9--7--9-----9--9--7--9---|--9--9--7--9-----9--7--9-----9--7--|
G|------------------------------|-----------------------------------|
D|------------------------------|-----------------------------------|
A|------------------------------|-----------------------------------|
E|------------------------------|-----------------------------------|

Verse

palm muted
E|-------------------------|
B|-------------------------|
G|-------------------------|
D|-------------------------|   8x
A|-------------------------|
E|-2-x-4-4--4-4--4--2h3h4--|

E|-------------------------------------|----------------------------|
B|-------------------------------------|----------------------------|
G|-------------------------------------|----------------------------|
D|-------------------------------------|----------------------------|
A|-------------------------------------|----------------------------|
E|-6-x-6-6--6-6--6---4--2---4-2---4-2--|--2-x-4-4--4-4-4--2h3h4---4-|

Then go back to main riff and bridge. 

Solo #2

E|---9~~~-7------9~~~-11-7------9~~~-7--9--11~~13~~16~~--|
B|----------9~~------------9~~~--------------------------|
G|-------------------------------------------------------|
D|-------------------------------------------------------|
A|-------------------------------------------------------|
E|-------------------------------------------------------|

E|-13-16-13-16-13--16-13-16-13-16-13-16-13---21~~~~~19-------------------|
B|-----------------------------------------------------21-19-------------|
G|-----------------------------------------------------------20-18-------|
D|-----------------------------------------------------------------21-18-|
A|-----------------------------------------------------------------------|
E|-----------------------------------------------------------------------|

E|----14-13---11------------------------------------14-13--11-------------|
B|-16------------14--12-11-----------------------16-----------14-12-11----|
G|-------------------------13--11-10-8---------------------------------13-|
D|-------------------------------------11-9-6-9------------------------13-|
A|------------------------------------------------------------------------|
E|------------------------------------------------------------------------|
Добавлено: 09.05.2012
Другие материалы по этой песне:
  • Аккорды и текст

Страница создана 09.05.2012
http://primanota.ru/u2/god-part-ii-live-chords.htm
Привет, Гость.
Предлагаем пройти революционный курс по гитаре.
Подарок от PrimaNota.Ru, забирай!