PrimaNota.ru - самый крупный в мире бесплатный архив песенных текстов, аккордов, табулатур и нот


U2 - Glastonbury - бас-таба, видео

Регистрация Запомнить меня
Войти через:  Facebook Google Twitter Vk Yandex Mail.ru

U2 - Glastonbury - бас-таба, видео

Печатать
Просмотров: 210
ARTIST:U2 
TITLE: GLASTONBURY

BY: LUCA GEMMA



STANDARD TUNING 

G |---------------|	
D |---------------|
A |77-------------|
E |---------------|

              
|---------------|
|---------------|
|77-77-2-5-2-525|   X4
|---------------|


verse
|---------------|
|---------------|
|7775-4--------5|   X4
|-------5--5-78-|

|---------------|----------|
|---------------|----------|
|------00-2-3---|-0-2-3-5--|   X2
|0003---------3-|----------|



|---------------|
|---------------|
|77-77-2-5-2-525|   X4
|---------------|

|----------------|------------------|
|----------------|------------------|
|----------------|-7--5-4---7--5-4--|
|5555555533333333|-------7--------7-|

|----------------|------------------|
|----------------|------------------|
|----------------|------------------|
|5555555533333333|-7--5-32--7--5-32-|

|---------------|----------------|
|---------------|----------------|
|77-77----------|77-77-----------|   
|---------------|----------------|


verse
|-------------|
|-------------|
|-------------|    X4
|00-33-55-353-|

|---------------|----------|
|---------------|----------|
|------00-2-3---|-0-2-3-5--|   X2
|0003---------3-|----------|

|---------------|              |-----------------|
|---------------|              |-----------------|
|77-77-2-5-2-525|   X4         |-----------------|
|---------------|              |0----------------|

SOLO THE EDGE
|----------------|----------------|
|----------------|----------------|
|----------------|0000000233333333|
|0000000233333333|----------------|

|---------------|              |-----------------|
|---------------|              |-----------------|
|77-77-2-5-2-525|   X2         |-----------------|
|---------------|              |0----------------|

|----5X---------5X--|
|--5X---5X----5X--5X|
|7X--------7X-------|   X2
|-------------------|

|----5X---------5X--|5X---------------|
|--5X---5X----5X--5X|-----------------|
|7X--------7X-------|-----------------|   
|-------------------|-----------------|

|---------------|              |-----------------|
|---------------|              |-----------------|
|77-77-2-5-2-525|   X10        |77---------------|
|---------------|              |-----------------|

Question, Comments, Corrections shall be sent to gemma.luca@gmail.com
Добавлено: 31.07.2012
Другие материалы по этой песне:
  • Аккорды и текст

Страница создана 31.07.2012
http://primanota.ru/u2/glastonbury-chords.htm
Привет, Гость.
Предлагаем пройти революционный курс по гитаре.
Подарок от PrimaNota.Ru, забирай!