PrimaNota.ru - самый крупный в мире бесплатный архив песенных текстов, аккордов, табулатур и нот


U2 - Bullet The Blue Sky Live - таба, видео

Регистрация Запомнить меня
Войти через:  Facebook Google Twitter Vk Yandex Mail.ru

U2 - Bullet The Blue Sky Live - таба, видео

Печатать
Просмотров: 159
-----------------------------------------------------------------------------
                        Bullet The Blue Sky - U2
-----------------------------------------------------------------------------
Tabbed by:Gareth Quinn Redmond
Email:Garethqr@Hotmail.com

Tuning:EbAbDbGbBbEb (All of the strings tuned down half a step)

e|-----------15-------------------------------------------------------------|
B|---3/17---------17----15--14--15--17--15--14h--15p--14-------14h15--------|
G|---------------------------------------------------------16---------------|
D|--------------------------------------------------------------------------|
A|--------------------------------------------------------------------------|
E|--------------------------------------------------------------------------|

e|-----------15-------------15----------------------------------------------|
B|---3/17------------17-------------17----15b17-----15-----14-----15--------|
G|--------------------------------------------------------------------------|
D|--------------------------------------------------------------------------|
A|--------------------------------------------------------------------------|
E|--------------------------------------------------------------------------|

e|---------------------------------------------------15-------------15------|
B|--14--15--17--15--14h15---------14h15-------15b17--------15b17------------|
G|---------------------------16---------------------------------------------|
D|--------------------------------------------------------------------------|
A|--------------------------------------------------------------------------|
E|--------------------------------------------------------------------------|

e|-12-----------------------------------------------------------------------|
B|--------15------12--------------------------------------------------------|
G|------------------------14b16r14-----12------------------------------12---|
D|--------------------------------------------14-----12------14----14-------|
A|--------------------------------------------------------------------------|
E|--------------------------------------------------------------------------|

e|------------------15-----------15--------17---------17-----------17-------|
B|------------15b---------15b-------15/19-------19----------19-----------19-|
G|----14--------------------------------------------------------------------|
D|--------------------------------------------------------------------------|
A|--------------------------------------------------------------------------|
E|--------------------------------------------------------------------------|

e|-17\0-----------------12--------------------------------------------------|
B|-----------------12------12--15b17r15---12--------------------------------|
G|---------14b16--------------------------------14b16r14--------------------|
D|-----------------------------------------------------------14---12---14---|
A|--------------------------------------------------------------------------|
E|--------------------------------------------------------------------------|

e|--------------------------------------------------------------------------|
B|--------------------------------------------------------------------------|
G|--------------------12----------12----------12----------------------------|
D|---------12h14p12---------14-----------14---------14-----------7------7--9|
A|--/14---------------------------------------------------7---10----10------|
E|--------------------------------------------------------------------------|

e|--------------------------------------------------------------------------|
B|--------------------------------------------15---------15---------15------|
G|------------14b16r14-------12---14----14b16-----14b16------14b16----------|
D|---/12/14-------------14--------------------------------------------------|
A|--------------------------------------------------------------------------|
E|--------------------------------------------------------------------------|


e|--------------------------------------------------------------------------|
B|--------15----------15----------------------------------------------------|
G|-14b16-------14b16-----------------------------14b------------------------|
D|--------------------------------------------------------------------------|
A|--------------------------------------------------------------------------|
E|--------------------------------------------------------------------------|

| /  slide up
| \  slide down
| h  hammer-on
| p  pull-off
| ~  vibrato
| +  harmonic
| x  Mute note
Добавлено: 04.03.2012
Другие материалы по этой песне:

Страница создана 28.02.2012
http://primanota.ru/u2/bullet-the-blue-sky-live-chords.htm
Привет, Гость.
Предлагаем пройти революционный курс по гитаре.
Подарок от PrimaNota.Ru, забирай!