PrimaNota.ru - самый крупный в мире бесплатный архив песенных текстов, аккордов, табулатур и нот


U2 - 40 Live - таба, бас-таба, видео

Регистрация Запомнить меня
Войти через:  Facebook Google Twitter Vk Yandex Mail.ru

U2 - 40 Live - таба, бас-таба, видео

Печатать
Просмотров: 160
U2 – Vertigo Tour

"40"

Adam play this one. And he did a very good job. I love this sound!!!

Verse
    
"I waited patiently for the Lord...”
             
e|---------------|
B|---------------|
G|---------------|
D|-------[7]-----| Repeat all over the verse
A|---[7]---------|
E|---------------|



Chorus

	How long?...To sing this song?

e|-------------------|---------------------|
B|-------------------|---------------------|
G|-------------------|---------------------|
D|---------7---------|-----------5---------| let ring
A|---------0---------|-----------7---------|
E|-------------------|---------------------|

When Bono is lighting up the people on the stadium you play this:

e|--------------------------|----------------------|
B|--------------------------|----------------------|
G|--------------------------|----------------------|
D|-------7----7----7—7/9----|--7-----7-----7-----7-| ?X
A|-0---0----0----0-----------|-----0-----0-----0---|
E|--------------------------|----------------------|

Gently palm mutes the 0s on the A string.

e|-------------------|
B|-------------------|
G|-------------------|
D|---------7---------|Let it ring
A|---------0---------|
E|-------------------|

Tabs by Ricardo
Any doubts: ricardomatrix07@hotmail.com
Добавлено: 30.09.2013
Другие материалы по этой песне:
  • Аккорды и текст

Страница создана 30.09.2013
http://primanota.ru/u2/40-live-chords.htm
Привет, Гость.
Предлагаем пройти революционный курс по гитаре.
Подарок от PrimaNota.Ru, забирай!