PrimaNota.ru - самый крупный в мире бесплатный архив песенных текстов, аккордов, табулатур и нот


Tysen - Hold My Breath - таба, видео

Регистрация Запомнить меня
Войти через:  Facebook Google Twitter Vk Yandex Mail.ru

Tysen - Hold My Breath - таба, видео

Печатать
Просмотров: 96
Song- Hold My Breath
Artist- Tysen
Album- *Self-titled*

This is a great song by an awesome local Seattle Post-Hardcore band! I've figured out 
of their songs, so email me if you want any more!

www.myspace.com/kjosey
chriskjos37@hotmail.com


Intro:
Guitar 1

E ----0---0--0--0--0--0---0------------------------------------------|
B ----4-/-5--5--5--5--4-/-0--(x4)------------------------------------|
G -------------------------------------------------------------------|
D -------------------------------------------------------------------|
A -------------------------------------------------------------------|
E -------------------------------------------------------------------|

E ---9-/-12--10------------------------------0---0--0--0--0--0---0---|
B ---------------12-/-14--12--10--9-10-(x4)--4-/-5--5--5--5--4-/-0---|
G --------------------------------------then-------------------------|
D -------------------------------------------------------------------|
A -------------------------------------------------------------------|
E -------------------------------------------------------------------|

Intro:
Guitar 2

*Out for first four measures*

E ---0--/--0--0-------0--/--0--0-------0--/--0--x---------------------|
B ---0--/--0--0-------0--/--0--0-------0--/--0--x---------------------|
G ---6--/--9--9-------4--/--2--2-------2--/--4--4--4------------------|
D ---x--/--x--x-------x--/--2--2-------2--/--2--2--x------------------|(cont. below)
A ---4--/--7--7-------2--/--0--0-------0--/--x--x--2------------------|
E -------------------------------------------4--4---------------------|

E --0---0--0--0--0--0--0---------------------------------------------|
B --4-/-5--5--5--5--4--0---------------------------------------------|
G --5-----------------------(x2)-------------------------------------|
D --x----------------------------------------------------------------|
A --3----------------------------------------------------------------|
E -------------------------------------------------------------------|

Verse

       "I'm sick of the same old situations, messing me up so slowly..."
      (E major)                     (F#major)
E -x-x-x-x-x-x-x-x-------------/---x-x-x-x-x-x-x-x------------------|
B -0-0-0-0-0-0-0-0-------------/---0-0-0-0-0-0-0-0------------------|
G -1-1-1-1-1-1-1-1-------------/---3-3-3-3-3-3-3-3------------------|
D -2-2-2-2-2-2-2-2-------------/---4-4-4-4-4-4-4-4------------------|
A -2-2-2-2-2-2-2-2-------------/---4-4-4-4-4-4-4-4------------------|
E -0-0-0-0-0-0-0-0-------------/---x-x-x-x-x-x-x-x------------------|

      "I'm tired of all those things that you said you'd say..."

       (B major)                          (E major)-(E/D# major)
E --x-x-x-x-x-x-x-x------------/-----------x-x-x-x-x-x-x-x---------|
B --0-0-0-0-0-0-0-0------------/-----------0-0-0-0-0-0-0-0---------|
G --6-6-6-6-6-6-6-6------------/-----------9-9-9-9-9-9-9-9---------|
D --7-7-7-7-7-7-7-7------------/-----------9-9-9-9-9-9-9-9---------|
A --7-7-7-7-7-7-7-7------------/-----------7-7-7-7-6-6-6-6---------|
E --x-x-x-x-x-x-x-x------------/-----------x-x-x-x-x-x-x-x---------|

     "And you cant second chance your own pace..."

      (C# minor)
E ----x-x-x-x-x-x-x-x-------------------------------------------------|
B ----0-0-0-0-0-0-0-0-------------------------------------------------|
G ----6-6-6-6-6-6-6-6-------------------------------------------------|
D ----6-6-6-6-6-6-6-6-------------------------------------------------|
A ----4-4-4-4-4-4-4-4-------------------------------------------------|
E ----x-x-x-x-x-x-x-x-------------------------------------------------|

     "From all of the ways you slapped your own face..."

     (Bb major)                      (A major)
E ---x-x-x-x-x-x-x-x---------/-------x-x-x-x-x-x-x-x-----------------|
B ---3-3-3-3-3-3-3-3---------/-------0-0-0-0-0-0-0-0-----------------|
G ---3-3-3-3-3-3-3-3---------/-------2-2-2-2-2-2-2-2-----------------|
D ---x-x-x-x-x-x-x-x---------/-------2-2-2-2-2-2-2-2-----------------|
A ---1-1-1-1-1-1-1-1---------/-------0-0-0-0-0-0-0-0-----------------|
E ---x-x-x-x-x-x-x-x---------/-------x-x-x-x-x-x-x-x-----------------|

     "In everything you thought you'd be, but still I can't go on!"

                        (E major)       (E/D# major)
E ----------------------x-x-x-x----------x-x-x-x---------------------|
B ----------------------0-0-0-0----------0-0-0-0---------------------|
G ----------------------9-9-9-9----------9-9-9-9---------------------|
D ----------------------9-9-9-9----------9-9-9-9---------------------|
A ----------------------7-7-7-7----------6-6-6-6---------------------|
E ----------------------x-x-x-x----------x-x-x-x---------------------|

Bridge;

  "Can't go on.....Can't go on......Can't go on.....Can't go on."
E ----------------------------------------------------------|
B ----------------------------------------------------------|
G ----------------------------------------------------------|
D -----2---6-----2---5-----2---4----------------------------|
A ---4---4-----4---4-----4---4----2-/-4--0--(x2)------------|
E ----------------------------------------------------------|

Chorus;

*Same as guitar 2 intro*

      "It's just the way that I can, hold my breath in..."

(C#minor)-(E major)(B major)-(A major) (A major)-(E/G# major)
E ---0--/--0--0-------0--/--0--0-------0--/--0--x---------------------|
B ---0--/--0--0-------0--/--0--0-------0--/--0--x---------------------|
G ---6--/--9--9-------4--/--2--2-------2--/--4--4--4------------------|
D ---x--/--x--x-------x--/--2--2-------2--/--2--2--x------------------|(cont. below)
A ---4--/--7--7-------2--/--0--0-------0--/--x--x--2------------------|
E -------------------------------------------4--4---------------------|

 "And keep my head up high..."
   (C minor)
E --0---0--0--0--0--0--0---------------------------------------------|
B --4-/-5--5--5--5--4--0---------------------------------------------|
G --5-----------------------(x2)-------------------------------------|
D --x----------------------------------------------------------------|
A --3----------------------------------------------------------------|
E -------------------------------------------------------------------|

Basically everything is in here, although it is not all mapped out correctly. You can 
it out for yourself pretty easily.

Enjoy,
Chris Kjos
Добавлено: 06.04.2012
Вам также может быть интересно:
Другие материалы по этой песне:
  • Аккорды и текст

Страница создана 06.04.2012
http://primanota.ru/tysen/hold-my-breath-chords.htm
Привет, Гость.
Предлагаем пройти революционный курс по гитаре.
Подарок от PrimaNota.Ru, забирай!